Oops, an error
Loading. Please wait.
We have Chord Pro version of Slow Cheetah.
It's the closest thing you can get to the original song and it has interactive parts. Check out the tab »
×
10,274 views 45 this week
1 commentread comment
1 2 3 4 5
x 8
add to favorites
×
Save as Personal and add changes to this tab that will be seen only by you. Learn more ›
×
You can save this tab as Personal to edit and correct it or add notes. All changes will be seen only by you. Learn more »
launch autoscroll
font size
0
reset
how to read this tab
guitar tuner
backing track
0:00
0:00
edit
Autoscroll
slow
fast
+/-
esc
set tempo
stop
                         Slow Cheetah
                         Red Hot Chili Peppers

I think I got everything right for this!

e|-----9-------------|-------------------------------|
B|-------------------|--------9-11-------------------|
G|--8b------8r-6-6---|---8/10------8br-6---8-8-------|
D|-------------------|-------------------8-----------|
A|-------------------|-------------------------------|
E|-------------------|-------------------------------|

e|-----------------------|---------------------------|
B|-----------------------|-------9-11----------------|
G|------6-8-8br-6h8-6-6--|--8/10------8br-6---8------|
D|--6h8------------------|------------------8--------|
A|-----------------------|---------------------------|
E|-----------------------|---------------------------|

e|---------------------------|-----------------------|
B|---------------------------|------9-11-------------|
G|------6h8-6h8-8br-6h8-6-6--|-8/10------8br-6--8-8--|
D|--6h8----------------------|-----------------8-----|
A|---------------------------|-----------------------|
E|---------------------------|-----------------------|

e|-----------------------|---------------------------|
B|-----------------------|------9-11-----------------|
G|------6-8-8br-6h8-6-6--|-8/10------8br-6---8-------|
D|--6h8------------------|-----------------8---------|
A|-----------------------|---------------------------|
E|-----------------------|---------------------------|

b- bend
r- release
br- bendRelease
h- hammeron
/-slide

            
            
Suggest correction
Creating personal tab
Creating personal tab
You can edit any tab online and save it as your Personal.

You can edit, replace or remove any tab part or add personal notes – all changes will be seen only by you.

Personal tabs can be accessed anytime from any device, even offline.
Learn more »
comments
print report bad tab
1 comment total.
+3 reply
sublimegroove 243 May 16, 2014 06:45 PM

It's 9 to 11 on the b string not 10
but think that's pretty easy to figure out

guest
Wanna post a correction for this tab? Suggest correction