Oops, an error
Loading. Please wait.

Stone Cold Bush bass

version 2
version 2

Whole song

Interactive

48,901 views 9 this week
4 commentsread comments
1 2 3 4 5
x 19
add to favorites
×
Save as Personal and add changes to this tab that will be seen only by you. Learn more ›
×
You can save this tab as Personal to edit and correct it or add notes. All changes will be seen only by you. Learn more »
launch autoscroll
font size
0
reset
guitar tuner
backing track
0:00
0:00
edit
Autoscroll
slow
fast
+/-
esc
set tempo
stop
Author
Artist: Red Hot Chili Peppers
Song Title: Stone Cold Bush
Album: Mothers Milk

Key-
T= Tap
P= Pop

[Intro]
G|-------------------------------5----5-3--------------|
D|-----------------------------5----5------------------|
A|-----------------------------------------1-3--1-3-1--|
E|--3--------3-0-1-2-3---------------------------------|

[Verse Part 1]
G|----------------------------------------------------5----5-3--------------|
D|-------5-------5-------5---------------5-------5--5----5------------------|
A|--------------------------------------------------------------1-3--1-3-1--|
E|--1-3-----1-3-----1-3-----3-0-1-2-1-3-----1-3-----------------------------|

[Verse Part 2]
G|-------------------------------------------------------3-5--3-5-3-------------|
D|------------------------------------------------------------------------------|
A|------------------------------------------------------------------1-3--1-3-1--|
E|--3-3-1-3--3-3-1-3--3-3-1-3--3-0-1-2-3-3-1-3--3-3-1-3-------------------------|

[Chorus]
G|-----------------------------------------------------------------------|
D|---------------------------------------------------------5---5---5-----|
A|-----------------------------------------------------------------------|
E|—-8-8-8-8-8-8-8-8-6-6-6-6-5-5-5-5-3--6-3-3--6-3-3--6-3-3---3---3-------|
    S S S S S S S S S S S S S S S S S  S S S  S S S  S S S P S P S P

G|--------------------------------------|
D|--------------------------------------|
A|—-3-3-3-3-3-3-3-3-1-1-1-1-0-0-0-0-----|
E|--------------------------------------|

[Solo Part 1]
G|---------12---------10-9-10-------12-12---------10-15~-12-----|
D|------------10h12-----------------------10h12-----------------|
A|—-0h10-x----------x------------10-------------x---------------|
E|--------------------------------------------------------------|
   T    T P  P     T P  P P     T  P  P  P     T P  P   P

G|--------12-12-------10---10~-----15-14-13-12-----------|
D|--------------10h12------------------------------------|
A|—-10-10----------------x-------x-----------------------|
E|---------------------------------------------6-5-4-----|
   T  T  P  P  P     P  T P     T P  P  P  P  T T T

[Solo Part 2]
G|-----------------------------------------------|
D|------5-5-------3-3--------5-5-----------------|
A|-----------------------------------------------|
E|—-3-x-----0-1-x------0-3-x-----0-1/6-5-4-3---|
   T T P P T T T P P  T T T P P T T   T T T

[End Of Interlude]
G|-------------------------------------------------------------12----10-----|
D|--------------------------------0/12-12-12-12-12-12-12-12-12--------------|
A|—-5-5-5-5-5-5-5-5-5-5-5-5-5-5-5-------------------------------------------|
E|--------------------------------------------------------------------------|

[Order]
Intro x1
Verse Part 1 x2
Verse Part 2 x2
Chorus x2
Intro x1
Verse Part 2 x2
Chorus x1
Solo Part 1 x1
Solo Part 2 x10
End Of Interlude x1
Intro x1
Verse Part 1 x2
Verse Part 2 x2
Chorus x1
Solo Part 1 x1

            
            
Suggest correction
Creating personal tab
Creating personal tab
You can edit any tab online and save it as your Personal.

You can edit, replace or remove any tab part or add personal notes – all changes will be seen only by you.

Personal tabs can be accessed anytime from any device, even offline.
Learn more »
comments
print report bad tab
4 comments total. Showing first comments.
0 reply
BassPlayer18269 236 Aug 11, 2003 08:00 PM

hey i made a mistake in the verse part 2 at the end of the measure he does the same thing as in verse part 1 at the end of the measure... i changed it right before i submitted it and i forgot to change that part... my bad... any questions just let me know

0 reply
Uncommonresults 480 Jan 01, 2005 07:00 PM

This tab frickin rules! I was watching an old SNL and they were playing this song, so I decided I had to learn it. And I was looking at them so I chose the first possible one. This one pretty much perfect. Great job! I don't play with fingers so it's harder to get around the frets fast enough...

0 reply
betterwithbass 40 Jan 15, 2008 08:00 AM

this sounds closer to the solo me thinks :)

solo part
1
G------12--X--------10-9-10---X--12--X---------10--15h16--12-|

D------------10H12---------------------10H12-----------------|

A-10-X---X---------X--X-X---X--10--X---------X----X------X---|

E------------------------------------------------------------|
T T P T P T TP TPTP T PT P T P T T P TP
TP

G------12---X---------10-9H10~~---15-14-13-12-X---------|

D-------------10H12-------------------------------------|
A-10-X----X---------X---X-------------------------------|

E--------------------------------X--------------6-5-4-3-|
T T P T P T T P TP TP P P P P T T T T


Solo Part
2
G--------------------------------------------
D------5-5------------------5-5--------------
A----------------1-1---
----------------------
E—-3-x-----0-1-x------0-3-x-----0-1/6-5-4-3--
T T P P T T T P P T T T P P T T T T T

guest
You may want to rate the tab now too:
select rating
Wanna post a correction for this tab? Suggest correction