Oops, an error
Loading. Please wait.

Strange Man tab

version 2
version 2

Whole song

364 views 3 this week
no commentswrite comment
1 2 3 4 5
x 3
add to favorites
×
Save as Personal and add changes to this tab that will be seen only by you. Learn more ›
×
You can save this tab as Personal to edit and correct it or add notes. All changes will be seen only by you. Learn more »
launch autoscroll
font size
0
reset
how to read this tab
guitar tuner
edit
Autoscroll
slow
fast
+/-
esc
set tempo
stop
Song: Strange Man
Artist: Red Hot Chili Peppers

Rhythm for this song is 7/8, there are 3 different guitar parts (G1 G2 G3)


[Intro]

Guitar 1
e|---3---1--4---3--1--4------------------------------------------------------------|
B|---3---1--4---3--1--4------------------------------------------------------------|
G|---4---2--5---4--2--5------------------------------------------------------------|
D|---5---3--6---5--3--6------------------------------------------------------------|
A|---5---3--6---5--3--6------------------------------------------------------------|
E|---3---1--4---3--1--4------------------------------------------------------------|

Guitar 2
e|---------------------------------------------------------------------------|
B|---12--10---13b15r-----12--12\10---13b15r----------------------------------|
G|---------------------------------------------------------------------------|
D|---------------------------------------------------------------------------|
A|---------------------------------------------------------------------------|
E|---------------------------------------------------------------------------|

Guitar 3 
e|---------------------------------------------------------------------------|
B|-----8----played during the whole intro------------------------------------|
G|---------------------------------------------------------------------------|
D|---------------------------------------------------------------------------|
A|---------------------------------------------------------------------------|
E|---------------------------------------------------------------------------|


[Verse]

G 
All of my love and
F
Most of my fears
    G#
Been coming on strong
               G
For most of my years
           F             G#
Add up and end up in a song

G                     F
Cellophane tweeds and revenue streams
    G#                               G
Are blocking my shots and killin' my dreams
               F             G#
That showed me how to be the cause


G   F    G#     G   F    G#
Ooh ahh, yella, ooh ahh, hey ah what now?


[Chorus]

e|------------------------------------------------------------------------------------|
B|------------------------------------------------------------------------------------|
G|----5h7-7p5----------------------------7-5------------------------------------------|
D|------------7-5----------------------------7-5h7--5---------------------------------|
A|----------------5--3/5--7--5h7p5--3-----------------5--3/5--7-5h7p5---3----3--5-----|
E|--------------------------------------------------------------------------5-------5-|

e|-------------------------------------------------------------------------------4------|
B|-------------------------------------------------------------------------------4------|
G|----5h7-7p5----------------------------7-5-------------------------------------5------|
D|------------7-5----------------------------7-5h7--5----------------------------6------|
A|----------------5--3/5--7--5h7p5--3-----------------5--3/5--7-5h7p5--3---------6------|
E|-------------------------------------------------------------------------------4------|


G   F    G#     G   F    G#
Ooh ahh, yella, ooh ahh, hey 
G                     F
All of my friends and enemies
          G#
They were part of this dance
                  G 
That put me right here we go
   F                   G#                      
So glad I got this chance

G                   
Better known plans
   F            G#
And lesser known schemes
  G                    F       
Were all about love and less about me
G#
I'd have to say she wore the pants

That's oh! 


[Chorus]

e|------------------------------------------------------------------------------------|
B|------------------------------------------------------------------------------------|
G|----5h7-7p5----------------------------7-5------------------------------------------|
D|------------7-5----------------------------7-5h7--5---------------------------------|
A|----------------5--3/5--7--5h7p5--3-----------------5--3/5--7-5h7p5---3----3--5-----|
E|--------------------------------------------------------------------------5-------5-|

e|------------------------------------------------------------------------------------|
B|------------------------------------------------------------------------------------|
G|----5h7-7p5----------------------------7-5------------------------------------------|
D|------------7-5----------------------------7-5h7--5---------------------------------|
A|----------------5--3/5--7--5h7p5--3-----------------5--3/5--7-5h7p5--3--------------|
E|------------------------------------------------------------------------------------|


[Solo]

e|-5------10-----7----|      |-------------------------------------------------------|
B|-5-x12--10-x3--8-x3-|      |---8------10-------------------------------------------|
G|-5------10-----7----|      |---9--x3--10-x2----------------------------------------|
D|--------------------|      |---10--------------------------------------------------|
A|--------------------|      |-------------------------------------------------------|
E|--------------------|(x3)  |-------------------------------------------------------|


[Chorus]

e|------------------------------------------------------------------------------------|
B|------------------------------------------------------------------------------------|
G|----5h7-7p5----------------------------7-5------------------------------------------|
D|------------7-5----------------------------7-5h7--5---------------------------------|
A|----------------5--3/5--7--5h7p5--3-----------------5--3/5--7-5h7p5---3----3--5-----|
E|--------------------------------------------------------------------------5-------5-|

e|------------------------------------------------------------------------------------|
B|------------------------------------------------------------------------------------|
G|----5h7-7p5----------------------------7-5------------------------------------------|
D|------------7-5----------------------------7-5h7--5---------------------------------|
A|----------------5--3/5--7--5h7p5--3-----------------5--3/5--7-5h7p5--3--------------|
E|------------------------------------------------------------------------------------|


[Outro]

Guitar 1
e|------------------------------------------------------------------------------------|
B|------------------------------------------------------------------------------------|
G|----5h7-7p5----------------------------7-5------------------------------------------|
D|------------7-5----------------------------7-5h7--5---------------------------------|
A|----------------5--3/5--7--5h7p5--3-----------------5--3/5--7-5h7p5---3----3--5-----|
E|--------------------------------------------------------------------------5-------5-|

Guitar 2
e|-----------------15----------------------15--------------------------------|
B|-15--20b--20--13----13---15--20b--20--13----13-----------------------------|
G|---------------------------------------------------------------------------|
D|---------------------------------------------------------------------------|
A|---------------------------------------------------------------------------|
E|---------------------------------------------------------------------------|

Guitar 1
e|------------------------------------------------------------------------------------|
B|------------------------------------------------------------------------------------|
G|----5h7-7p5----------------------------7-5------------------------------------------|
D|------------7-5----------------------------7-5h7--5---------------------------------|
A|----------------5--3/5--7--5h7p5--3-----------------5--3/5--7-5h7p5--3--------------|
E|------------------------------------------------------------------------------------|

Guitar 2
e|-----------------15----------------------15--------------------------------|
B|-15--20b--20--13----13---15--20b--20--13----13----15b17br------------------|
G|---------------------------------------------------------------------------|
D|---------------------------------------------------------------------------|
A|---------------------------------------------------------------------------|
E|---------------------------------------------------------------------------|

Guitar 3 
e|----15----till the end-----------------------------------------------------|
B|---------------------------------------------------------------------------|
G|---------------------------------------------------------------------------|
D|---------------------------------------------------------------------------|
A|---------------------------------------------------------------------------|
E|---------------------------------------------------------------------------|


************************************



| h   Hammer-on
| p   Pull-off
| r   Release
| >   Accented note
| t   Tapping
| b   Bend
| br  Bend release
| pb  Pre-bend
| pbr Pre-bend release
| /   Slide up
| \   Slide down
| ~   Vibrato
| s   Slap
| P   Pop
| PM  Palm mute
| TR  Trill
| N   Tremolo

************************************

            
            
Suggest correction
Creating personal tab
Creating personal tab
You can edit any tab online and save it as your Personal.

You can edit, replace or remove any tab part or add personal notes – all changes will be seen only by you.

Personal tabs can be accessed anytime from any device, even offline.
Learn more »
Give kudos to tab author, rate the tab!
1 2 3 4 5
comments
print report bad tab
guest
You may want to rate the tab now too:
select rating
Wanna post a correction for this tab? Suggest correction