Oops, an error
Loading. Please wait.
We have an official Tell Me Baby tab made by UG professional guitarists. Check out the tab »
×
202,753 views 159 this week
25 commentsread comments
1 2 3 4 5
x 62
add to favorites
×
Save as Personal and add changes to this tab that will be seen only by you. Learn more ›
×
You can save this tab as Personal to edit and correct it or add notes. All changes will be seen only by you. Learn more »
launch autoscroll
font size
0
reset
how to read this tab
guitar tuner
backing track
0:00
0:00
edit
Autoscroll
slow
fast
+/-
esc
set tempo
stop
Author
Tell Me Baby.
Red Hot Chili Peppers.
Stadium Arcadium (2006)
Guitarist: John Frusciante
*Tabbed by 1550


*This is the amazing song from the new Chili Peppers album Stadium Arcadium.
i tabbed it from the live version i've got so may be subject to a little change
here and there but otherwise, pretty good. 
A classic from one of the most amazing guitarists around.


[Intro] (fingers & pick):

E|---------------------------------------------------------------------|
B|------1----------1----------0------1---------------------------------|
G|--2----------0----------0--------------2-----------------------------|
D|--3------------------------------------------------------------------|
A|-------------3---------------------0---------------------------------|
E|------------------------3--------------------------------------------|

   [F]        [C]        [G]        [Am]

E|-----------------------------------1---------------------------------|
B|------1----------1----------0------3---------------------------------|
G|--2----------0----------0----------2---------------------------------|
D|--3--------------------------------0---------------------------------|
A|-------------3---------------------0---------------------------------|
E|------------------------3--------------------------------------------|

   [F]        [C]        [G]       [Dm/A]

E|---------------------------------------------------------------------|
B|------1----------1----------0------1h3p1-----------------------------|
G|--2----------0----------0----------2----2----------------------------|
D|--3------------------------------------------------------------------|
A|-------------3---------------------0---------------------------------|
E|------------------------3--------------------------------------------|

   [F]        [C]        [G]        [Am]

E|------------------------1-------------------------------------------||
B|------1----------1------0-------------------------------------------||
G|--2----------0----------0-------------------------------------------||
D|--3---------------------0-------------------------------------------||
A|-------------3----------2-------------------------------------------||
E|------------------------3-------------------------------------------||

   [F]        [C]        [G7]


[Verse Riff:]

E|---------------------------------------------------------------------|
B|-----------------x----x--------x-x----[x3]---------------------------|
G|--12--14------12-x-14-x--------x-x-----------------------------------|
D|----------14-----x----x-14-14--x-x-----------------------------------|
A|---------------------------------------------------------------------|
E|---------------------------------------------------------------------|

E|--------------------------------------------------------------------||
B|--------------13p12----x--------------------------------------------||
G|--12--14--12--------14-x--12h14~~~----------------------------------||
D|-----------------------x--------------------------------------------||
A|--------------------------------------------------------------------||
E|--------------------------------------------------------------------||


[2nd Verse Riff:]


E|--12-x-12--x-x-12-x-x-12-12-x-12-12--x-x-----------------------------|
B|--12-x-12--x-x-12-x-x-12-12-x-12-12--x-x-----------------------------|
G|--12-x-12--x-x-12-x-x-12-12-x-12-12--x-x-----------------------------|
D|--14-x-14--x-x-14-x-x-14-12-x-14-14--x-x-----------------------------|
A|---------------------------------------------------------------------|
E|---------------------------------------------------------------------|

   [Em]

E|--12-x-12--x-x-12-x-x-12-x-x-7-7--x-x--------------------------------|
B|--12-x-12--x-x-12-x-x-12-x-x-8-8--x-x--------------------------------|
G|--12-x-12--x-x-12-x-x-12-x-x-9-9--x-x--------------------------------|
D|--14-x-14--x-x-14-x-x-14-x-x------x-x--------------------------------|
A|---------------------------------------------------------------------|
E|---------------------------------------------------------------------|

   [Em]                       [Em]

E|--12-x-12--x-x-12-x-x-12-x-x-12-12--x-x------------------------------|
B|--12-x-12--x-x-12-x-x-12-x-x-12-12--x-x------------------------------|
G|--12-x-12--x-x-12-x-x-12-x-x-12-12--x-x------------------------------|
D|--14-x-14--x-x-14-x-x-14-x-x-14-14--x-x------------------------------|
A|---------------------------------------------------------------------|
E|---------------------------------------------------------------------|

   [Em]

E|--12-x-12--x-x-15-15-15-15-15-15-15-15------------------------------||
B|--12-x-12--x-x-15-15-15-15-15-15-15-15------------------------------||
G|--12-x-12--x-x-16-16-16-16-16-16-16-16------------------------------||
D|--14-x-14--x-x------------------------------------------------------||
A|--------------------------------------------------------------------||
E|--------------------------------------------------------------------||

   [Em]         [G]



[Chorus:]

E|------ 8-----------8----------7------8-------------------------------|
B|--10-----------8----------8----------10------------------------------|
G|--10------10---9------9---7------7--------9--9-----------------------|
D|-(10)--------------------(5)--------(7)------------------------------|
A|--------------(10)---------------------------------------------------|
E|---------------------------------------------------------------------|

   [F]          [C]        [G]        [Am]


E|------ 8-----------8----------7------13-------12---------------------|
B|--10-----------8----------8----------13-------13---------------------|
G|--10------10---9------9---7--------------14-------14-----------------|
D|-(10)--------------------(5)-----------------------------------------|
A|--------------(10)---------------------------------------------------|
E|---------------------------------------------------------------------|

   [F]          [C]        [G]        [F]      [Am]


E|------ 8-----------8----------7------8-------------------------------|
B|--10-----------8----------8----------10------------------------------|
G|--10------10---9------9---7------7--------9--9-----------------------|
D|-(10)--------------------(5)--------(7)------------------------------|
A|--------------(10)---------------------------------------------------|
E|---------------------------------------------------------------------|

   [F]          [C]        [G]        [Am]

E|------ 8-----------8--13-13-13-13-13-13-13-13-13-13-13-13-13-13-13-13-||
B|--10-----------8------13-13-13-13-13-13-13-13-13-13-13-13-13-13-13-13-||
G|--10------10---9------14-14-14-14-14-14-14-14-14-14-14-14-14-14-14-14-||
D|-(10)-----------------12-12-12-12-12-12-12-12-12-12-12-12-12-12-12-12-||
A|--------------(10)----------------------------------------------------||
E|----------------------------------------------------------------------||

   [F]          [C]    [F/D]   

E|--end on-----8~~~---------------------------------------------------||
B|-------------10~~---------------------------------------------------||
G|-------------9~~~---------------------------------------------------||
D|--------------------------------------------------------------------||
A|--------------------------------------------------------------------||
E|--------------------------------------------------------------------||



************************************

| x    Dead note
| (n)  Ghost note
| h    Hammer-on
| p    Pull-off
| ~    Vibrato

************************************

            
            
Suggest correction
Creating personal tab
Creating personal tab
You can edit any tab online and save it as your Personal.

You can edit, replace or remove any tab part or add personal notes – all changes will be seen only by you.

Personal tabs can be accessed anytime from any device, even offline.
Learn more »
comments
print report bad tab
25 comments total. Showing first comments.
0 reply
Yertle 241 Mar 20, 2006 01:42 PM

Great tab =D

0 reply
pretaanluxis 31 Mar 24, 2006 12:45 PM

thx

-2 reply
UtBDan 2,097 Mar 24, 2006 01:58 PM

the chorus is completly wrong. the verse is pretty spot on though.

guest
You may want to rate the tab now too:
select rating
Wanna post a correction for this tab? Suggest correction