Oops, an error
Loading. Please wait.

The Longest Wave tab

version 1
version 1

Whole song

Interactive

Video

31,366 views 96 this week
4 commentsread comments
1 2 3 4 5
x 21
add to favorites
×
Save as Personal and add changes to this tab that will be seen only by you. Learn more ›
×
You can save this tab as Personal to edit and correct it or add notes. All changes will be seen only by you. Learn more »
launch autoscroll
font size
0
reset
how to read this tab
guitar tuner
edit
Autoscroll
slow
fast
+/-
esc
set tempo
stop
Author
Difficulty
Well, it's my 1st tab EVER. Lord have mercy. 



[Intro]

e|-------------------------------------------------------------5---------------------------------------------|
B|---------------------------------10h11------------------6------------8-------------------------------------|
G|--------------12----------------------12----------7--------7---------8--------8h10p8---------7h8p7-8p7-----|
D|--------12h13----13-----------12---------12---------8-------------8------8/10-------10-----8-----------8/10|
A|-----13-------------13-----10---------------10--------8-----------6------8/10------------------------------|
E|--11-------------------11-----------------------6--------------------------------------6-------------------|

e|-------------------------11--------11---------10---------------------------|
B|------------11-----------13--13--------13-----11--11-----------------------|
G|---------12----12----12--12-----12--------12--10-----10--------------------|
D|------12----------12-----13------------------------------------------------|
A|-8/10----------------------------------------------------------------------|
E|---------------------------------------------------------------------------|


[Chorus]

e|------------------------------------------------------------------------------------|
B|-11b-11-----------------------------------------------------------------------------|
G|--------10b--8--8h10-------------------------------10-------------------------------|
D|----------------------8--8h10------------6h8-8/10-----10---8/10-8p6-8p6-------------|
A|------------------------------------6h8---------------------------------8-6b8r6-----|
E|------------------------------------------------------------------------------------|


[Verse] 1

Throw me all around
Like a boomerang sky
Whatever you do
Don't tell me why
Poppies grow tall
Then say bye bye
The wave is here

e|---------------------------------------------------------------------------|
B|---------------------------------------------------------------------------|
G|------15p12--13p10----15p12--13p10----15p12--13p10-----15----14------------|
D|----------------------------------------------------------12----15---------|
A|---------------------------------------------------------------------------|
E|---------------------------------------------------------------------------|

A seamless little team
And then we tanked
I guess we're not so sacrosanct
The tip of my tongue
But then we blanked

e|---------------------------------------------------------------------------|
B|--------------------------------13-----------------------------------------|
G|-----15p12--12-13-10---15-12-12----12\10--15-12--13-10----------------14---|
D|--------------------------------------------------------------12---------15|
A|---------------------------------------------------------------------------|
E|---------------------------------------------------------------------------|

Waiting on the wind
To tell my side                     *strange awkward sounds idk (birds maybe)*
e|---------------------------------------------------------------------------|
B|--------------------------------------------------------------13-----------|
G|-------14------12------------------15p12----13p10-8-----15p12-----12\10----|
D|----15------12-----12-12---------------------------------------------------|
A|---------------------------------------------------------------------------|
E|---------------------------------------------------------------------------|

Ready set jet
But she never gets far
Listen to your skin
From the seat of my car
Two centipedes stuck
In one glass jar
The longest wave

e|---------------------------------------------------------------------------|
B|------------------------------13-------------------------------------------|
G|---15p12--13p10-8/10----15p12----12\10-8h10----15p12---13p10----15----14---|
D|-------------------------------------------------------------------12----15|
A|---------------------------------------------------------------------------|
E|---------------------------------------------------------------------------|

Waiting on the wind
To tell my side

e|---------------------------------------------------------------------------|
B|---------------------------------------------------------------------------|
G|------14------12-----------------------------------------------------------|
D|---15------12----12-12-----------------------------------------------------|
A|---------------------------------------------------------------------------|
E|---------------------------------------------------------------------------|

Whatcha want
Whatcha need
Do you love

e|---------------------------------------------------------------------------|
B|---------------------------------------------------------------------------|
G|-----------------------12--------------------------------------------------|
D|----13-----12------13h15---13-12------13-----12----------------------------|
A|---------------------------------------------------------------------------|
E|---------------------------------------------------------------------------|

 
[Verse] 2

Sterile as the barrel
Of an old 12 gauge
Under my skin
And half my age
Hotter than the wax
On a saxifrage

e|---------------------------------------------------------------------------|
B|-------------------------------------------------------13------------------|
G|---15p12--13p10----15p12-12---10\8/10-10-------15-12------12\10------------|
D|---------------------------------------------------------------------------|
A|---------------------------------------------------------------------------|
E|---------------------------------------------------------------------------|

Steady your sails
For the butterfly flap
Whatever you do
Don't close that gap
I'm dreaming of a woman
But she's just my nap

e|-------------------------------------------------------------------------------|
B|------------------------------------11h13p11---------------------11h13p11------|
G|--15p12---12\10--13p10-10-----15p12---------12--10-10-8----15p12----------12p10|
D|-------------------------------------------------------------------------------|
A|-------------------------------------------------------------------------------|
E|-------------------------------------------------------------------------------|


[Outro] PLAY SLOW

Now I know why we came
Now I know

e|---------------------------------------------------------------------------|
B|---------------------------------------------------------------------------|
G|------------------------------------------8-----------------8br------------|
D|---------------------------------6h8-8/10---8br--8h10p8\6h8----------------|
A|--4-4h6p4-3-3h4p3------------6h8-------------------------------------------|
E|------------------6-6h8p6-4------------------------------------------------|


and then just play intro



************************************

| h   Hammer-on
| p   Pull-off
| r   Release
| b   Bend
| br  Bend release
| /   Slide up
| \   Slide down

************************************

            
            
Suggest correction
Creating personal tab
Creating personal tab
You can edit any tab online and save it as your Personal.

You can edit, replace or remove any tab part or add personal notes – all changes will be seen only by you.

Personal tabs can be accessed anytime from any device, even offline.
Learn more »
comments
print report bad tab
4 comments total. Showing first comments.
0 reply
jsook724 10 Jun 17, 2016 02:45 AM

the very first chord on the intro should be a d-sharp major 7 chord, it's much easier to play and probably how josh actually plays. Also the 6h8p6 after the 8/10 slide in the intro should be a 8h10p8 and then the next note should be an 8 also instead of a 6. Otherwise a good tab!!

0 reply
miszgun 54 Jun 17, 2016 04:01 AM

thanks ) i was just helluva tired at the end of the day and mixed those numbers and wrote 6 8 instead of 8 10 )))

0 reply
nataliamel 10 Jun 18, 2016 10:35 AM

wow! I like it! thank you very much for this tabs, you're so fast :)are you Quicksilver or Flash?

guest
You may want to rate the tab now too:
select rating
Wanna post a correction for this tab? Suggest correction