Oops, an error
Loading. Please wait.
We have an official The Zephyr Song tab made by UG professional guitarists. Check out the tab »
×
26,471 views 18 this week
4 commentsread comments
1 2 3 4 5
x 18
add to favorites
×
Save as Personal and add changes to this tab that will be seen only by you. Learn more ›
×
You can save this tab as Personal to edit and correct it or add notes. All changes will be seen only by you. Learn more »
launch autoscroll
font size
0
reset
how to read this tab
guitar tuner
edit
Autoscroll
slow
fast
+/-
esc
set tempo
stop
By: Red Hot Chili Peppers
Song: The Zephyr Song
Album:By The Way
Tabbad By: Josh Lead
Tuning: Standard (EADGBe)

This is my first tab so go easy.

Intro:

e|--------------------------------------------------
B|--------------------------------------------------
G|-------12-------10-----------------9--------------
D|----10--------9--------5-9------10----------------
A|-12--------10--------7--------8-------------------
E|--------------------------------------------------

e|--------------------------------------------------
B|--------------------------------------------------
G|-----9--------7--------2--------5-----------------
D|---7--------5--------2--------5-------------------
A|-7--------5--------4--------3---------------------
E|--------------------------------------------------

Solo:

e|------------------------------------------------------------
B|-17-15-17-17---15-17-13s12-12---15-13-15-15---13-15-11s10-10
G|------------------------------------------------------------
D|------------------------------------------------------------
A|------------------------------------------------------------
E|------------------------------------------------------------
               x2
Thats all ive got at the moment but ill sent in the rest when I get it.
Laterz

            
            
Suggest correction
Creating personal tab
Creating personal tab
You can edit any tab online and save it as your Personal.

You can edit, replace or remove any tab part or add personal notes – all changes will be seen only by you.

Personal tabs can be accessed anytime from any device, even offline.
Learn more »
comments
print report bad tab
4 comments total. Showing first comments.
+1 reply
Guy Snowden 30 Dec 21, 2002 07:00 PM

Sorry the solo is played like this

e12101212-1012------10--1010-10--1012
b-------------12b10---13-------13

e-----
b12b10

+2 reply
BasketCase87 80 Dec 27, 2003 07:00 PM

Actually, its more like this:

e-12-10-12-12--12-10-12--------------10-8-10-10--10-10-12------------
b----------------------12b(13)r12-10---------------------12b(13)r12-10
and so on

+1 reply
benjo01 10 Sep 11, 2006 09:17 AM

basket case one is the solo

guest
Wanna post a correction for this tab? Suggest correction