Oops, an error
Loading. Please wait.

True Men Dont Kill Coyotes bass

version 4
version 4

Whole song

Interactive

10,869 views 3 this week
4 commentsread comments
1 2 3 4 5
x 15
add to favorites
×
Save as Personal and add changes to this tab that will be seen only by you. Learn more ›
×
You can save this tab as Personal to edit and correct it or add notes. All changes will be seen only by you. Learn more »
launch autoscroll
font size
0
reset
guitar tuner
edit
Autoscroll
slow
fast
+/-
esc
set tempo
stop
Author
Difficulty
-------------------------------------------------------------------------------
	True Men Don't Kill Coyotes - Red Hot Chili Pepppers
-------------------------------------------------------------------------------

Tabbed By : nick270b
Watch the Cover Here: http://uk.youtube.com/watch?v=Vn0OnUuDjTY

Tuning: Standard

Intro:
G|-----9--7~-----------|-----9--7~-----------|
D|--9-----------5--7x--|--9-----------5--7x--|
A|-7-xx-xx----x5-xx--7-|-7-xx-xx----x5-xx--7-|
E|---------------------|---------------------|
   TPTTPTTP   TTPTTPPT   TPTTPTTP   TTPTTPPT

Verse 1:
G|--------------------------------------------------------------------------------------------|
D|----2-2------------2-2------------2-2------------2-2------------2-2------------2-2----------|
A|--------------------------------------------------------------------------------------------|
E|--0x-x-0~--3-5-3-0x-x-0~--3-5-3-0x-x-0~--3-5-3-0x-x-0~--3-5-3-0x-x-0~--3-5-3-0x-x-0~--3-5-3-|
    TTPTPT   T T T TTPTPT   T T T TTPTPT   T T T TTPTPT   T T T TTPTPT   T T T TTPTPT   T T T

Verse 2:
G|-------------------------------------------------------------------------------|
D|----2-2------------2-2------9-9--------9-9---------2-2------------2-2----------|
A|-------------------------------------------------------------------------------|
E|--0x-x-0~--3-5-3-0x-x-0~--7x-x-7~-5--7x-x-7~-10--0x-x-0~--3-5-3-0x-x-0~--3-5-3-|
    TTPTPT   T T T TTPTPT   TTPTPT  T  TTPTPT  T   TTPTPT   T T T TTPTPT   T T T

Verse 3:
G|--------------------------------------------------------------------------------------------|
D|----2-2------------2-2------------2-2------------2-2------------2-2------------2-2----------|
A|--------------------------------------------------------------------------------------------|
E|--0x-x-0~--3-5-3-0x-x-0~--3-5-3-0x-x-0~--3-5-3-0x-x-0~--3-5-3-0x-x-0~--3-5-3-0x-x-0~--3-5-3-|
    TTPTPT   T T T TTPTPT   T T T TTPTPT   T T T TTPTPT   T T T TTPTPT   T T T TTPTPT   T T T

Verse 4:
G|-------------------------------------------------------------------------------|
D|----2-2------------2-2------9-9--------9-9---------2-2------------2-2----------|
A|-------------------------------------------------------------------------------|
E|--0x-x-0~--3-5-3-0x-x-0~--7x-x-7~-5--7x-x-7~-10--0x-x-0~--3-5-3-0x-x-0~--3-5-3-|
    TTPTPT   T T T TTPTPT   TTPTPT  T  TTPTPT  T   TTPTPT   T T T TTPTPT   T T T

Interlude:
G|---------------------------------------------------------------------|
D|---------------------------------------------------------------------|
A|-----------------------------------------------------5x-3x-5x-3x-5-3-|
E|--5x-7x-5x-7x-5-7--5x-7x-5x-7x-5-7--5x-7x-5x-7x-5-7------------------|


Chorus:
G|--------------------------------------------------------------------------------------------|
D|----2-2------------2-2------------2-2------------2-2------------2-2------------2-2----------|
A|--------------------------------------------------------------------------------------------|
E|--0x-x-0~--3-5-3-0x-x-0~--3-5-3-0x-x-0~--3-5-3-0x-x-0~--3-5-3-0x-x-0~--3-5-3-0x-x-0~--3-5-3-|
    TTPTPT   T T T TTPTPT   T T T TTPTPT   T T T TTPTPT   T T T TTPTPT   T T T TTPTPT   T T T

Verse 4:
G|--------------------------------------------------------------------------------------------|
D|----2-2------------2-2------------2-2------------2-2------------2-2------------2-2----------|
A|--------------------------------------------------------------------------------------------|
E|--0x-x-0~--3-5-3-0x-x-0~--3-5-3-0x-x-0~--3-5-3-0x-x-0~--3-5-3-0x-x-0~--3-5-3-0x-x-0~--3-5-3-|
    TTPTPT   T T T TTPTPT   T T T TTPTPT   T T T TTPTPT   T T T TTPTPT   T T T TTPTPT   T T T

Verse 5:
G|-------------------------------------------------------------------------------|
D|----2-2------------2-2------9-9--------9-9---------2-2------------2-2----------|
A|-------------------------------------------------------------------------------|
E|--0x-x-0~--3-5-3-0x-x-0~--7x-x-7~-5--7x-x-7~-10--0x-x-0~--3-5-3-0x-x-0~--3-5-3-|
    TTPTPT   T T T TTPTPT   TTPTPT  T  TTPTPT  T   TTPTPT   T T T TTPTPT   T T T


Interlude:
G|---------------------------------------------------------------------|
D|---------------------------------------------------------------------|
A|-----------------------------------------------------5x-3x-5x-3x-5-3-|
E|--5x-7x-5x-7x-5-7--5x-7x-5x-7x-5-7--5x-7x-5x-7x-5-7------------------|

Chorus:
G|--------------------------------------------------------------|
D|----2-2------------2-2------------2-2------------2-2----------|
A|--------------------------------------------------------------|
E|--0x-x-0~--3-5-3-0x-x-0~--3-5-3-0x-x-0~--3-5-3-0x-x-0~--3-5-3-|
    TTPTPT   T T T TTPTPT   T T T TTPTPT   T T T TTPTPT   T T T 

Guitar Solo 1:
G|-----------------------|
D|-----------------------|
A|-----------------------|
E|--7~--5/7~--5/7~--5/7~-|

Verse 6:
G|--------------------------------------------------------------------------------------------|
D|----2-2------------2-2------------2-2------------2-2------------2-2------------2-2----------|
A|--------------------------------------------------------------------------------------------|
E|--0x-x-0~--3-5-3-0x-x-0~--3-5-3-0x-x-0~--3-5-3-0x-x-0~--3-5-3-0x-x-0~--3-5-3-0x-x-0~--3-5-3-|
    TTPTPT   T T T TTPTPT   T T T TTPTPT   T T T TTPTPT   T T T TTPTPT   T T T TTPTPT   T T T

Verse 7:
G|--------------------------------------------------------------------------------------------|
D|----2-2------------2-2------9-9-------------9-9-----------------2-2------------2-2----------|
A|--------------------------------------------------------------------------------------------|
E|--0x-x-0~--3-5-3-0x-x-0~--7x-x-7~-5-5-5-5-7x-x-7~-10-10-10-10-0x-x-0~--3-5-3-0x-x-0~--3-5-3-|
    TTPTPT   T T T TTPTPT   TTPTPT  T T T T TTPTPT  T  T  T  T  TTPTPT   T T T TTPTPT   T T T

Interlude:
G|---------------------------------------------------------------------|
D|---------------------------------------------------------------------|
A|-----------------------------------------------------5x-3x-5x-3x-5-3-|
E|--5x-7x-5x-7x-5-7--5x-7x-5x-7x-5-7--5x-7x-5x-7x-5-7------------------|


Chorus:
G|--------------------------------------------------------------|
D|----2-2------------2-2------------2-2------------2-2----------|
A|--------------------------------------------------------------|
E|--0x-x-0~--3-5-3-0x-x-0~--3-5-3-0x-x-0~--3-5-3-0x-x-0~--3-5-3-|
    TTPTPT   T T T TTPTPT   T T T TTPTPT   T T T TTPTPT   T T T 

Guitar Solo 2:
G|-----------------------|
D|-----------------------|
A|-----------------------|
E|--7~--5/7~--5/7~--5/7~-|

Chorus:
G|--------------------------------------------------------------|
D|----2-2------------2-2------------2-2------------2-2----------|
A|--------------------------------------------------------------|
E|--0x-x-0~--3-5-3-0x-x-0~--3-5-3-0x-x-0~--3-5-3-0x-x-0~--3-5-3-|
    TTPTPT   T T T TTPTPT   T T T TTPTPT   T T T TTPTPT   T T T 

Guitar Solo 3:
G|-----------------------|
D|-----------------------|
A|-----------------------|
E|--5~--3/5~--3/5~--3/5~-|

Chorus:
G|--------------------------------------------------------------|
D|----2-2------------2-2------------2-2------------2-2----------|
A|--------------------------------------------------------------|
E|--0x-x-0~--3-5-3-0x-x-0~--3-5-3-0x-x-0~--3-5-3-0x-x-0~--3-5-3-|
    TTPTPT   T T T TTPTPT   T T T TTPTPT   T T T TTPTPT   T T T 

Outro:
G|-----9--7~-----------|
D|--9-----------5--7x--|
A|-7-xx-xx----x5-xx--7-|
E|---------------------|
   TPTTPTTP   TTPTTPPT  



| /  slide up
| \  slide down
| h  hammer-on
| p  pull-off
| ~  vibrato
| +  harmonic
| x  Mute note
===============================================================================

            
            
Suggest correction
Creating personal tab
Creating personal tab
You can edit any tab online and save it as your Personal.

You can edit, replace or remove any tab part or add personal notes – all changes will be seen only by you.

Personal tabs can be accessed anytime from any device, even offline.
Learn more »
comments
print report bad tab
4 comments total. Showing first comments.
+1 reply
bassist999 10 Jul 29, 2008 03:59 PM

great tab! and the video helps a lot too. 5*

+1 reply
dmgINC308 47 Feb 10, 2011 05:15 PM

What do the T's and P's stand for? Is it slap and pop?

0 reply
elvis32 10 Apr 24, 2011 09:36 AM

Yes, T is slap and P, pop

guest
You may want to rate the tab now too:
select rating
Wanna post a correction for this tab? Suggest correction