Oops, an error
Loading. Please wait.
We have an official Under The Bridge tab made by UG professional guitarists. Check out the tab »
×

Under The Bridge intro tab

version 2
version 2

Intro

  • Extremely simplified yet accurate version of intro for beginners.

Whole song

Video

1,264 views 72 this week
no commentswrite comment
1 2 3 4 5
x 3
add to favorites
×
Save as Personal and add changes to this tab that will be seen only by you. Learn more ›
×
You can save this tab as Personal to edit and correct it or add notes. All changes will be seen only by you. Learn more »
launch autoscroll
font size
0
reset
how to read this tab
guitar tuner
backing track
0:00
0:00
edit
Autoscroll
slow
fast
+/-
esc
set tempo
stop
About this tab version
Extremely simplified yet accurate version of intro for beginners. Was this info helpful? Yes No
An easier way to play the intro to Under The Bridge with a capo on the 2nd fret.
You are basically playing out of the C and E chord position which makes it much easier
for beginners and players with small hands.

All other chords are matching the highest rated tab (in the open position)
For your F chord during the bridge use

F: 668886  (Relative To Capo)  or F: 8 8 10 10 10 8 (no capo)

[Intro]
    C                           E          
e|-------------------------------------------------------------|
B|-------------1-----------------------------------------------|
G|--------0------0------------------------1--------------------|
D|-----2----2------------------------2------2----2--0----------|
A|---3---------------2--0----------2---2---------------3--2----|
E|-------------------------3--2--0-----------------------------|

e|-------------------------------------------------------------|
B|-------------1h3p1-------------------------------------------|
G|--------0----------0----------------------1------------------|
D|-0h2------2---------------2/4--------2------2----2--0--------|
A|-3---3----------------3---3/5-----2-----2--------------3--2--|
E|-------------------------------0-----------------------------|


************************************

| h  Hammer-on
| p  Pull-off
| /  Slide up

************************************

            
            
Suggest correction
Creating personal tab
Creating personal tab
You can edit any tab online and save it as your Personal.

You can edit, replace or remove any tab part or add personal notes – all changes will be seen only by you.

Personal tabs can be accessed anytime from any device, even offline.
Learn more »
Give kudos to tab author, rate the tab!
1 2 3 4 5
comments
print report bad tab
guest
You may want to rate the tab now too:
select rating
Wanna post a correction for this tab? Suggest correction