Oops, an error
Loading. Please wait.

Universally Speaking solo tab

version 1
version 1
5,103 views 1 this week
3 commentsread comments
1 2 3 4 5
x 5
add to favorites
×
Save as Personal and add changes to this tab that will be seen only by you. Learn more ›
×
You can save this tab as Personal to edit and correct it or add notes. All changes will be seen only by you. Learn more »
launch autoscroll
font size
0
reset
how to read this tab
guitar tuner
backing track
0:00
0:00
edit
Autoscroll
slow
fast
+/-
esc
set tempo
stop
Author
Track: Universally Speaking solo (outro)
By: Red Hot Chili Peppers
Album: By The Way

Tabbed By : Philip Owens

This is one of my favourite songs from the Chili's new album. This is my 
first tab so expect a few minor mistakes. It sounds right to me but there's 
probably an easier way of playing this solo. It's easy enough to play on acoustic. 
I'm sure it sounds fine on electric too. Enjoy!! 


e--------------------------------------------------------------------
B---7----------------------------------------------------------------
G-------10p8h10p8----7\8\7\8h10----8\7\8h10--------------------------
D----------------------------------------------8-8-8-8---------------
A--------------------------------------------------------------------
E--------------------------------------------------------------------

e--------------------------------------------------------------------
B---7------------------------------------------10-10-10-10-----------
G-------10p8h10p8----7\8\7\8h10----8\7\8h10--------------------------
D--------------------------------------------------------------------
A--------------------------------------------------------------------
E--------------------------------------------------------------------

e--------------------------------------------------------------------
B---7----------------------------------------------------------------
G-------10p8h10p8----7\8\7\8h10----8\7\8h7---------------------------
D----------------------------------------------8-8-8-8---------------
A--------------------------------------------------------------------
E--------------------------------------------------------------------


e--------------------------------------------------------------------
B--------------------------------------------------------------------
G------------------------------------------8-------------------------
D-----8---6---5---6/5-----------8---8--------------------------------
A----------------------6---6-----------------------------------------
E--------------------------------------------------------------------

            
            
Suggest correction
Creating personal tab
Creating personal tab
You can edit any tab online and save it as your Personal.

You can edit, replace or remove any tab part or add personal notes – all changes will be seen only by you.

Personal tabs can be accessed anytime from any device, even offline.
Learn more »
comments
print report bad tab
3 comments total.
0 reply
scottish_scotty 25 Aug 18, 2003 08:00 PM

when it goes to the 10 on the b, i think it sounds better if u play it on the 11th (just my thoughts tho if u like it the way it is)

0 reply
scottish_scotty 25 Aug 18, 2003 08:00 PM

and instead of playing the firs note on the 7th on the b, u could play it on the 11th on the g

0 reply
meddavisn 10 Oct 20, 2006 12:37 AM

You realise this whole solo can be played on the D string, simply 16-14-12-14-12-11-12-7-7-7-16-14-12-14-12-11-12-20-20-20-16-14-12-14
12-11-12-7-7-7-4-5-4-5-0-7-12

guest
You may want to rate the tab now too:
select rating
Wanna post a correction for this tab? Suggest correction