Oops, an error
Loading. Please wait.

We Turn Red tab

version 1
version 1

Whole song

7,051 views 27 this week
2 commentsread comments
1 2 3 4 5
x 5
add to favorites
×
Save as Personal and add changes to this tab that will be seen only by you. Learn more ›
×
You can save this tab as Personal to edit and correct it or add notes. All changes will be seen only by you. Learn more »
launch autoscroll
font size
0
reset
how to read this tab
guitar tuner
backing track
0:00
0:00
edit
Autoscroll
slow
fast
+/-
esc
set tempo
stop
The song came out today so it's not perfect but it sounds very good.
Watch my cover to understand every part of the song :) Have fun!!!
https://www.youtube.com/watch?v=yz5Pwp1RFIo


[Intro]

e|---------------------------------------------------------------------------|
B|---------------------------------------------------------------------------|
G|---------------------------------------------------------------------------|
D|---------------------------------------------------------------------------|
A|---------------------------------------------------------------------------|
E|--6h8-8-8--6h8-8-8--6h8-8-8--6h8-8-8--6h8-8-8--6h8-8-8--6h8-8-8------------|

or

e|---------------------------------------------------------------------------|
B|---------------------------------------------------------------------------|
G|---------------------------------------------------------------------------|
D|---------------------------------------------------------------------------|
A|--1h3-3-3--1h3-3-3--1h3-3-3--1h3-3-3--1h3-3-3--1h3-3-3--1h3-3-3------------|
E|---------------------------------------------------------------------------|


[Verse Part 1]

Same as the intro


[Verse Part 2]

Turn on the wah-pedal

e|--x-x-------x-x--------------x-x------x-x-------------------------------------------|
B|--x-x-------x-x--------------x-x------x-x-------------------------------------------|
G|--x-x-------x-x--------------x-x------x-x-------------------------------------------|
D|--x-x-------x-x--------------x-x------x-x-11s10-10-8h10-----------------------------|
A|--x-x--8-10-x-x-8h10-10-8h10-x-x-8-10-x-x-------------------------------------------|
E|--x-x-------x-x--------------x-x------x-x-------------------------------------------|


e|--x-x-------x-x--------------x-x------x-x-------------------------------------------|
B|--x-x-------x-x--------------x-x------x-x-------------------------------------------|
G|--x-x-------x-x--------------x-x------x-x-------------------------------------------|
D|--x-x-------x-x--------------x-x------x-x--10-10-10-10-8~---------------------------|
A|--x-x--8-10-x-x-8h10-10-8h10-x-x-8-10-x-x-------------------------------------------|
E|--x-x-------x-x--------------x-x------x-x-------------------------------------------|

Chords which are played in the background at 0:52
Listen carfully 

e|---------------------------------------------------------------------------|
B|---------------------------------------------------------------------------|
G|--7--------9---------------------------------------------------------------|
D|--8--------8---------------------------------------------------------------|
A|--10-------10--------------------------------------------------------------|
E|---------------------------------------------------------------------------|


[Chorus]

Use chorus effect and reverb
Not sure about that one but it sounds pretty good to me
You can strum the full chords or play the melody here:

              A#                         Gm
e|---------------------------------------------------------------------------|
B|------6-----------6--------------------------------------------------------|
G|----7---7---7---7---6---7-------7-------------7----------------------------|
D|--8-------8---8-------8-------8---8----8----8---8----8---------------------|
A|---------------------------10-------10---10-------10-----------------------|
E|---------------------------------------------------------------------------|

             Fmaj                                     Bmaj
e|---------------------------------------------------------------------------|
B|-----------10----------------10---------------7-------------7--------------|
G|--------10----10----10----10----10----10----9---9----9----9---9----9-------|
D|-----10----------10----10----------10----10-------10---10-------10---------|
A|---------------------------------------------------------------------------|
E|---------------------------------------------------------------------------|

[Vers 2]

Same as the normal verse but without wah and a litte bit of distortion instead
Play the chords over the verse as above.


[Chorus 2]

              A#                         Gm
e|---------------------------------------------------------------------------|
B|------6-----------6--------------------------------------------------------|
G|----7---7---7---7---6---7-------7-------------7----------------------------|
D|--8-------8---8-------8-------8---8----8----8---8----8---------------------|
A|---------------------------10-------10---10-------10-----------------------|
E|---------------------------------------------------------------------------|

             Fmaj                                     Bmaj
e|---------------------------------------------------------------------------|
B|-----------10----------------10---------------7-------------7--------------|
G|--------10----10----10----10----10----10----9---9----9----9---9----9-------|
D|-----10----------10----10----------10----10-------10---10-------10---------|
A|---------------------------------------------------------------------------|
E|---------------------------------------------------------------------------|


[Solo]
at 2:24

Use a bottleneck/chorus/reverb
Play over the chorus

e|-----------------------------16s14s16s18s16s14s16---16s18--18s15s17--17s12--12s13s15--|
B|--------------------------------------------------------------------------------------|
G|--7s10---10s15---15s19-17s19----------------------------------------------------------|
D|--------------------------------------------------------------------------------------|
A|--------------------------------------------------------------------------------------|
E|--------------------------------------------------------------------------------------|

e|---------------------------------------------------------------------------|
B|---------------------------------------------------------------------------|
G|---------------------------------------------------------------------------|
D|---------------------------------------------------------------------------|
A|---------------------------------------------------------------------------|
E|---------------------------------------------------------------------------|


[Outro]

e|---------------------------------------------------------------------------|
B|---------------------------------------------------------------------------|
G|---------------------------------------------------------------------------|
D|---------------------------------------------------------------------------|
A|---------------------------------------------------------------------------|
E|--6h8-8-8--6h8-8-8--6h8-8-8--6h8-8-8--6h8-8-8--6h8-8-8--6h8-8-8------------|

or

e|---------------------------------------------------------------------------|
B|---------------------------------------------------------------------------|
G|---------------------------------------------------------------------------|
D|---------------------------------------------------------------------------|
A|--1h3-3-3--1h3-3-3--1h3-3-3--1h3-3-3--1h3-3-3--1h3-3-3--1h3-3-3------------|
E|---------------------------------------------------------------------------|



************************************

| x  Dead note
| h  Hammer-on
| ~  Vibrato
| s  Slide

************************************

            
            
Suggest correction
Creating personal tab
Creating personal tab
You can edit any tab online and save it as your Personal.

You can edit, replace or remove any tab part or add personal notes – all changes will be seen only by you.

Personal tabs can be accessed anytime from any device, even offline.
Learn more »
comments
print report bad tab
2 comments total.
+1 reply
filipkuster 24 Jun 11, 2016 07:36 AM, edited at 11:37 am

minor correction but i think during the chorus the second part ise|--------------------------------------------------------------------------B|-----------10----------------10---------------8-------------8-------------G|--------10----10----10----10----10----10----9---9----9----9---9----9------D|-----10----------10----10----------10----10-------10---10-------10--------A|--------------------------------------------------------------------------E|--------------------------------------------------------------------------as opposed to-----7-------- ---9---9----9 10-------10---i could be wrong but this just sounds better to my ear

0 reply
MikeTheMoonBear 141 Jun 12, 2016 06:37 AM

could be possible :) You can only hear the guitar slightly on the song so i decided to improvise a little bit. My version is maybe wrong but it sounds good to me :) Thank you for your correction

guest
You may want to rate the tab now too:
select rating
Wanna post a correction for this tab? Suggest correction