Oops, an error
Loading. Please wait.

Eso Eres bass

25 views 1 this week
no commentswrite comment
1 2 3 4 5
3 more votes to show rating
add to favorites
×
Save as Personal and add changes to this tab that will be seen only by you. Learn more ›
×
You can save this tab as Personal to edit and correct it or add notes. All changes will be seen only by you. Learn more »
launch autoscroll
font size
0
reset
guitar tuner
edit
Autoscroll
slow
fast
+/-
esc
set tempo
stop
INTRO
G|--------------------------------6--|-----------------------|
D|----------------------------6------|-----------------------|
A|---------2--------2--4-------------|----4------0--4--------|
E|--0---4-------4--------------------|--4---2----------2~----|

G|--------------------------|
D|--------------------------|
A|-------------2-2-2-2------|
E|---5-5-5-5----------------|


VERSO 1
eres,   la dicha infinita,
que abarca mi vida
eso eres tu
G|--------------------------6--|--------------------|
D|-----------------------6-----|--------------------|
A|--------2------2--4----------|----4------0--4-----|
E|--0--4------4----------------|--4---2---------2~--|

G|----------------------|
D|----------------------|
A|-------------2-2-2-2--|
E|--5-5-5-5-------------|


VERSO 2
eres la luz que encandila
a este pobre amor
G|--------------------------6--|----------------------|
D|-----------------------6-----|----------------------|
A|--------2------2--4----------|-----4-------0--4-----|
E|--0--4------4----------------|--4-----2---------2~--|

G|----------------|
D|----------------|
A|----4-----4-----|
E|--5-----5---2~--|


VERSO 3
fuistes miiiiiia_aquella vez
dias felices, que no olvidare
pero tu       pero tu
no supiste comprender
G|------------------------------------|---------------|
D|------------------------------------|---------------|
A|--2-4~~---4-----------7~-~----7--6--|----6----6-----|
E|--------------5~-~-5--------5-------|--6----6----4~-|

G|--------------------|-------------|
D|--------------------|-------------|
A|----6~~-------6-4---|----4--------|
E|--4~-------4--------|--4----4--2--|

G|----------------------------|-----------------|
D|----------------------------|-----------------|
A|----4------2--0---2--4------|--2-2-2----------|
E|--4---5------------------5--|----------5-5-5--|

G|----------------|----------------|
D|----------------|--------1-------|
A|--2-2-2-2---22--|--2--4----------|
E|----------------|-----------0~~--|


VERSO 4
por  primera vez
yo siento un dolor
y ese eres tu
G|-------------------------6--|--------------------|
D|-----------------------6----|--------------------|
A|------2-------2--4----------|---4------0--4------|
E|--0-4------4----------------|-4---2----------2~--|

G|---------------------|
D|---------------------|
A|------------2-2-2-2--|
E|--5-5-5-5------------|


VERSO 5
eres el dolor que siente
mi cooraazon al no estar tu
G|------------------------6--|---------------------|
D|----------------------6----|---------------------|
A|-------2------2--4---------|----4------0--4------|
E|--0--4-----4---------------|--4---2----------2~--|

G|------------------|
D|------------------|
A|------4-----4-----|
E|---5------5--2~---|


VERSO 6
quiera dios que algun dia
tu vuelvas a miiiii otra vez
y entonces para siempre
miaaaaa,  seras  amor
G|------------------------------------|-----------------|
D|------------------------------------|-----------------|
A|--2-4~~--4------------7~-~----7--6--|----6----6-------|
E|--------------5~-~-5--------5-------|--6----6-----4~--|

G|--------------------|-----------|
D|--------------------|-----------|
A|------6~~------6-4--|----4------|
E|--4~--------4-------|--4----4/--|

G|------------------------|-----------------|
D|------------------------|-----------------|
A|------------------------|--0-2------2-----|
E|--2-2-2----2-2-2----5~--|--------5----0---|

G|------------------------|
D|------------------------|
A|-----2---2-2----2-4~~~~-|
E|--4---------------------|


VERSO 7
quiera dios que algun dia
tu vuelvas a miiiii     otra vez
y entonces para siempre
miaaaaaaaa   seras  amoooooooooor
G|-----------------------------|-------------------|
D|-----------------------------|-------------------|
A|--4-----------7~-~-----7--6--|----6------6-------|
E|-----5~-~--5---------5-------|--6------6-----4~--|

G|----------------------|-----------|
D|----------------------|-----------|
A|-----6~~--------6-4---|----4------|
E|--4----------4--------|--4---4/---|

G|-----------------------|----------------|
D|-----------------------|----------------|
A|-----------------------|--0-2------2----|
E|--2-2-2---2-2-2----5~--|--------5----0--|

G|---------------------------------||
D|---------------------------------||
A|----2------2-3----0--3--2-3---7--||
E|--4-----4------------------------||

------------FIN-------------------

Espero que le sirva a más de alguien con nostalgia y
que escuche esta buena música un poco antigua.
Quien quiera compartir tabs de esta música? o
algún comentario. peppinick@
?. ?Solo por el encanto de tocar??.

            
            
Suggest correction
Creating personal tab
Creating personal tab
You can edit any tab online and save it as your Personal.

You can edit, replace or remove any tab part or add personal notes – all changes will be seen only by you.

Personal tabs can be accessed anytime from any device, even offline.
Learn more »
Give kudos to tab author, rate the tab!
1 2 3 4 5
comments
print report bad tab
guest
Wanna post a correction for this tab? Suggest correction