Oops, an error
Loading. Please wait.

King Of The Mountain Tt Style tab

by Redline
289 views 1 this week
no commentswrite comment
1 2 3 4 5
3 more votes to show rating
add to favorites
×
Save as Personal and add changes to this tab that will be seen only by you. Learn more ›
×
You can save this tab as Personal to edit and correct it or add notes. All changes will be seen only by you. Learn more »
launch autoscroll
font size
0
reset
how to read this tab
guitar tuner
edit
Autoscroll
slow
fast
+/-
esc
set tempo
stop
-------------------------------------------------------------------------------
                KING OF THE MOUNTAIN TT STYLE - Redline
-------------------------------------------------------------------------------
Tabbed by: Sturginaldo

Tuning: Tune down half step
Br bend release 1/4 step
Play this riff 4 times

e|-----------------------------------------------------------------------|
B|-----------------------------------------------------------------------|
G|---------2---------------4----------4br---2--4-2-----------------------|
D|---------2---------------4----------4br---2--4-2-----------------------|
A|-----------------------------------------------------------------------|
E|-2-2-2---------2-2-2------2-2-2----------------------------------------|


Play this twice for the first two lines of the verse

e|-----------------------------------------------------------------------|
B|-----------------------------------------------------------------------|
G|-2---------------------------------------------------------------------|
D|-2--------2------------------------------------------------------------|
A|-0--------2---------------4444444444444444-----------------------------|
E|----------0---------------2222222222222222-----------------------------|
     Pulling fast, head down Bray


e|------------------------------------------------------------------------|
B|------------------------------------------------------------------------|
G|-2-----------------------------------------2--------2---4---2-----------|
D|-2---------2-------------------------------2--------2---4---2-----------|
A|-0---------2---------------44444444-------------4-----------------------|
E|-----------0---------------22222222-------------------------------------|
     Spitting victory or cruel defeat

e|------------------------------------------------------------------------|
B|------------------------------------------------------------------------|
G|-2-------------------------------2--4--2--5--4--2-----------------------|
D|-2---------2------------------4--2--4--2--5--4--2-----------------------|
A|-0---------2------------------4-----------------------------------------|
E|-----------0------------------------------------------------------------|
          She deals the cards of fate



e|------------------------------------------------------------------------|
B|-3----------------------------------------------------------------------|
G|-2-------------7--------------------------------------------------------|
D|-0-------------7-----------------2---2---2---4--------------------------|
A|-0-------------4-----------------2---2---2---4--------------------------|
E|---------------------------------0---0---0---2--------------------------|
          Rolling Thunder


e|---------------------------------2--------2-2---------------------------|
B|-3-------------------------------2--------------2-2---------------------|
G|-2-------------7-----------------4--------------------4-4---------------|
D|-0-------------7-----------------4--------------------------4-4---------|
A|-0-------------4-----------------2--------------------------------------|
E|------------------------------------------------------------------------|
          

e|------------------------------------------------------------------------|
B|-3----------------------------------------------------------------------|
G|-2-------------7--------------------------------------------------------|
D|-0-------------7-----------------2---2---2---4--------------------------|
A|-0-------------4-----------------2---2---2---4--------------------------|
E|---------------------------------0---0---0---2--------------------------|
          

e|---------------------------------2--------------------------------------|
B|-3-------------------------------2--------------------------------------|
G|-2-------------7-----------------4--------------------------------------|
D|-0-------------7-----------------4--------------------------------------|
A|-0-------------4-----------------2--------------------------------------|
E|------------------------------------------------------------------------|
                                                King of the Mountain!

Back to intro riff for chorus


Interlude before solo

e|------------------------------------------------------------------------|
B|------------------------------------------------------------------------|
G|--------7----------------7----------------------------------------------|
D|------------------------------------------------------------------------|
A|-5--------------4---------------------3---------------------------------|
E|------------------------------------------------------------------------|


            
            
Suggest correction
Creating personal tab
Creating personal tab
You can edit any tab online and save it as your Personal.

You can edit, replace or remove any tab part or add personal notes – all changes will be seen only by you.

Personal tabs can be accessed anytime from any device, even offline.
Learn more »
Give kudos to tab author, rate the tab!
1 2 3 4 5
comments
print report bad tab
guest
You may want to rate the tab now too:
select rating
Wanna post a correction for this tab? Suggest correction