Oops, an error
Loading. Please wait.

I Would Have Left You tab

by Reef
1,623 views 3 this week
no commentswrite comment
1 2 3 4 5
2 more votes to show rating
add to favorites
×
Save as Personal and add changes to this tab that will be seen only by you. Learn more ›
×
You can save this tab as Personal to edit and correct it or add notes. All changes will be seen only by you. Learn more »
launch autoscroll
font size
0
reset
how to read this tab
guitar tuner
edit
Autoscroll
slow
fast
+/-
esc
set tempo
stop
Author
...I WOULD HAVE LEFT YOU BABE... by Reef
--------------------------------........

*from 'Glow' (1997)*


*DROP D TUNING*

(DADGBE)


Intro:

    D7
e|-----------------------|-----------------------|
B|-----7-----------------|-----7-----------------|
G|--------7-7--5-5-------|--------7-7--5-5-------|
D|------------------5h7--|------------------5h7--|
A|--5--------------------|--5--------------------|
D|-----------------------|-----------------------| (x2)

Verse 1:

    D7
e|-----------------------|-----------------------|
B|-----7-----------------|-----7-----------------|
G|--------7-7--5-5-------|--------7-7--5-5-------|
D|------------------5h7--|------------------5h7--|
A|--5--------------------|--5--------------------|
D|-----------------------|-----------------------|

(with Above Riff):

D7
 Won't you give, pictures of you? We'll go out, lounge by the pool.
After the sun has baked us through; we'll retreat, to the bedroom.

Chorus 1:

    D
e|-------------------------------------|
B|-------------------------------------|
G|-------------------------------------|
D|--------------3h4--x-x-----x-x-------|
A|--3h5--5-5-5-------x-x--3--x-x-------|
D|-------------------x-x-----x-x--3p0--|

(with Above Riff):

        D
I would have left you, babe, I would have left you, babe.
I would have left you, babe, if I only could.
I would have left you, babe, I would have left you, babe.
I would have left you, babe, if I only could, alright, yeah.

Interlude:

    D7
e|-----------------------|-----------------------|
B|-----7-----------------|-----7-----------------|
G|--------7-7--5-5-------|--------7-7--5-5-------|
D|------------------5h7--|------------------5h7--|
A|--5--------------------|--5--------------------|
D|-----------------------|-----------------------| (x2)

Verse 2: (with Verse Riff)

D7
 When we are where we should be; there'll be no questions in me.
After all was said before, you came and grabbed some more.

Chorus 2: (with Chorus Riff)

        D
I would have left you, babe, I would have left you, babe.
I would have left you, babe, if I only could.
I would have left you, babe, I would have left you, babe.
I would have left you, babe, if I only could, alright, yeah.

Bridge 1:

    G
e|-----------------------------------|------------------------------|
B|-----------------------------------|-------------------------3p0--|
G|-----------------------------------|-------------------2--52------|
D|--------0-0-0--------0-0--------0--|------0-0-0-3--5p0------------|
A|--3h5-5--------3h5-5------3h5-5----|--3h5-------------------------|
D|-----------------------------------|------------------------------|

(with Above Riff):

G
 Keep on, keep on...

    D
e|-------------------------------------|
B|-------------------------------------|
G|-------------------------------------|
D|--------------3h4--x-x-----x-x-------|
A|--3h5--5-5-5-------x-x--3--x-x-------|
D|-------------------x-x-----x-x--3p0--|

(with Above Riff):

                 D
Now I would have left you, babe, if I only could. I said, I said...

    G
e|----------------------------------|----------------------------------|
B|----------------------------------|-----------------------------3----|
G|------0---------------------------|---------------------2---5--------|
D|------0-0-0-0--------0-0-----0-0--|--------0-0-0-3--5p0---0---0---0--|
A|--3h5---------3h5--5-----3h5------|--3h5-5---------------------------|
D|----------------------------------|----------------------------------|

(with Above Riff):

G
 Keep on, keep on, a-keep on, it don't matter now, yeah.

    D
e|----------------------------------|----------------------------------|
B|----------------------------------|-----------------------------3-0--|
G|------0---------------------------|---------------------2---5-----0--|
D|------0-0-0-0--------0-0-----0-0--|--------0-0-0-3--5p0---0---0------|
A|--3h5---------3h5--5-----3h5------|--3h5-5---------------------------|
D|----------------------------------|----------------------------------|

(with Above Riff):

D
 Yeah, alright now. Keepin' on; don't matter, yeah!

Break:

    F5
e|----------|----------|----------|----------|
B|----------|----------|----------|----------|
G|----------|----------|----------|----------|
D|--3-------|--3-------|--3-------|--3-------|
A|--3-------|--3-------|--3-------|--3-------|
D|--3-------|--3-------|--3-------|--3-------|

   (n.c)
e|-------|-------|-------|-------|-------|-------|
B|-------|-------|-------|-------|-------|-------|
G|-------|-------|-------|-------|-------|-------|
D|-------|-------|-------|-------|-------|-------|
A|-------|-------|-------|-------|-------|-------|
D|-------|-------|-------|-------|-------|-------| (x2)

Interlude: (with Wah Wah)

    D
e|-------------------------------------|
B|-------------------------------------|
G|-------------------------------------|
D|--------------3h4--x-x-----x-x-------|
A|--3h5--5-5-5-------x-x--3--x-x-------|
D|-------------------x-x-----x-x--3p0--| (x4)

Chorus 3: (with Chorus Riff)

             D
I would have left you, babe, I would have left you, babe.
I would have left you, babe, if I only could, yeah.
I would have left you, baby, I would have left you, baby, yeah.
I would have left you, babe, if I only could, yeah.

I would have left you, sweet girl, oh, I would have left you, honey pie,
I would have left you, sugar, if I only could.
I would have left you, dumpling, I would have left you, brownie girl,
I would have left you, babe, if I only could, oh yeah, oh...

Outro:

    G
e|------------------------------------|--------------------------------|
B|------------------------------------|---------------------------3-0--|
G|--0------------0-----0-0------------|--------0-0--------2---5-----0--|
D|--0-----0-0-0--0-----0-0---------0--|--------0-0-3--5p0---0---0------|
A|--3-5-5--------3-5-5------3h5-5-----|--3h5-5-------------------------|
D|------------------------------------|--------------------------------|

(with Above Riff):

G
 People... keep on, ah people.

    G
e|------------------------------------|------------------------------|
B|------------------------------------|---------------------------3--|
G|--0------------0-----0-0------------|--0-----0-0--------2---5------|
D|--0-----0-0-0--0-----0-0---------0--|--0-----0-0-3--5p0---0---0----|
A|--3-5-5--------3-5-5------3h5-5-----|--3h5-5-----------------------|
D|------------------------------------|------------------------------|

    D5
e|---------------|
B|---------------|
G|---------------|
D|--0------------|
A|--0------------|
D|--0------------|


CHORD DIAGRAMS:
---------------

   D7      D       G       F5      D5

 DADGBE  DADGBE  DADGBE  DADGBE  DADGBE
 057575  057775  555x0x  333xxx  000xxx


Tabbed by Joel from cLuMsY, Bristol, England, 2006 (clumsyband@hotmail.com)

            
            
Suggest correction
Creating personal tab
Creating personal tab
You can edit any tab online and save it as your Personal.

You can edit, replace or remove any tab part or add personal notes – all changes will be seen only by you.

Personal tabs can be accessed anytime from any device, even offline.
Learn more »
Give kudos to tab author, rate the tab!
1 2 3 4 5
comments
print report bad tab
guest
You may want to rate the tab now too:
select rating
Wanna post a correction for this tab? Suggest correction