Oops, an error
Loading. Please wait.

Brown Eyed Girl bass

version 2
version 2

Whole song

Interactive

842 views 1 this week
no commentswrite comment
1 2 3 4 5
3 more votes to show rating
add to favorites
×
Save as Personal and add changes to this tab that will be seen only by you. Learn more ›
×
You can save this tab as Personal to edit and correct it or add notes. All changes will be seen only by you. Learn more »
launch autoscroll
font size
0
reset
guitar tuner
edit
Autoscroll
slow
fast
+/-
esc
set tempo
stop
Author
Reel Big Fish

Brown Eyed Girl Bass tab (fame, fortune, and fornication) 

~ = let ring


Intro:

G|-----------------------------|--------------------------------|
D|------------------5~---------|---------------5----------------|
A|------------3~---------5~----|----------3--------5--5--5-5----|
E|------3~---------------------|-----3--------------------------|

Verse 

G|--------------------------------------------------|
D|---------------------2-4-5---5--------------------|
A|----------0-2-3----5--------------2--5---5-3-2----|
E|----3-3------------------------3------------------|


Chorus

G|--------------------------------------7-------------4-------|
D|----------5-------------7-------5--5----5-----2--2-----2----|
A|----3--3----3-----5--5-----5--------------------------------|
E|------------------------------------------------------------|

G|---------------------------------------------------------------------|
D|----------5-------------7-------5-5-5-5---0--/12(only first chorus)--|
A|----3--3----3-----5--5-----5-----------------------------------------|
E|---------------------------------------------------------------------|

Sha la la Intro (after back to verse)

G|--------------------------|  
D|--------------------------|
A|---5--0h5--0h5--0h5--0h5--|
E|--------------------------|

Bass solo intro (after back to verse)

G|--------------------------|
D|--------------------------|
A|--------------------------|
E|---3--3--0-2---3--3--0-2--|

            
            
Suggest correction
Creating personal tab
Creating personal tab
You can edit any tab online and save it as your Personal.

You can edit, replace or remove any tab part or add personal notes – all changes will be seen only by you.

Personal tabs can be accessed anytime from any device, even offline.
Learn more »
Give kudos to tab author, rate the tab!
1 2 3 4 5
comments
print report bad tab
guest
You may want to rate the tab now too:
select rating
Wanna post a correction for this tab? Suggest correction