Oops, an error
Loading. Please wait.

Cannibal bass

445 views 1 this week
2 commentsread comments
1 2 3 4 5
3 more votes to show rating
add to favorites
×
Save as Personal and add changes to this tab that will be seen only by you. Learn more ›
×
You can save this tab as Personal to edit and correct it or add notes. All changes will be seen only by you. Learn more »
launch autoscroll
font size
0
reset
guitar tuner
edit
Autoscroll
slow
fast
+/-
esc
set tempo
stop
Author
Difficulty
I used the original demo for this tab, not the version on the album,I like the bass part 
in that version.  Also I dont think the inrto part 1 is exactly right.

Intro part 1
G|-16-16-16-16-16-|-14-14-14—9-9-9-|7-7-7--6-6-6-7-7|7-7-7--6-6-6-7-7|
D|----------------|----------------|----------------|----------------|  x3
A|----------------|----------------|----------------|----------------|
E|----------------|----------------|----------------|----------------|

Intro part 2
G|-----------------|----------------|------------------|----------------|
D|-----------0h7-5-|----4-------5---|----7-7-7-7-0h7-5-|----4-------5---|
A|----------------7|----------------|-----------------7|----------------|
E|5-5-5-5-5-5------|2-2---2-3-3---3-|5-5---------------|2-2---2-3-3---3-|

G|-----------------|----------------|--------|
D|-----------0h7-5-|----4-----------|--------|
A|----------------7|----------------|--------|
E|5-5-5-5-5-5------|2-2---2-3-3-3-3-|3-3-3-3-|


Verse Pt 1
G|-----------------|
D|-----------------|
A|-----------------| x4
E|5-5----2-2--3-3--|

Verse Pt 2
         x3
G|-----------------|-----------------|
D|-----------------|-----------------|
A|-----------------|-----------------|
E|5-/-17---2-/-15--|5-/-17---2-2-3-3-|

Chorus
G|-----------------|----------------|------------------|----------------|
D|-----------0h7-5-|----4-------5---|----7-7-7-7-0h7-5-|----4-------5---|
A|----------------7|----------------|-----------------7|----------------|
E|5-5-5-5-5-5------|2-2---2-3-3---3-|5-5---------------|2-2---2-3-3---3-|

G|-----------------|----------------|------------------|----------------|-------|
D|-----------0h7-5-|----4-------5---|----7-7-7-7-0h7-5-|----4-----------|-------|
A|----------------7|----------------|-----------------7|----------------|-------|
E|5-5-5-5-5-5------|2-2---2-3-3---3-|5-5---------------|2-2---2-3-3-3-3-|3-3-3-3|

Verse Pt 1
Verse Pt 2
Chorus


Bridge (after 4 bars of rest)
G|----9----8-----7-----6-----5---|
D|7-7--7-7---7-7---7-7---7-7---7-|  x6
A|-------------------------------|
E|-------------------------------|

Bridge Pt 2
         x3
G|-----------------|------------------|
D|-----------------|------------------|
A|-----------------|------------------|
E|5-5----2-2--3-3--|5-5----2-2-2-3-3-3|

Rest for 8 bars

Chorus

Ending

G|---------------|---------------|
D|---------------|---------------|
A|---------------|---------------|
E|3-3-3-3-3-3-3-3|5--------------|

            
            
Suggest correction
Creating personal tab
Creating personal tab
You can edit any tab online and save it as your Personal.

You can edit, replace or remove any tab part or add personal notes – all changes will be seen only by you.

Personal tabs can be accessed anytime from any device, even offline.
Learn more »
Give kudos to tab author, rate the tab!
1 2 3 4 5
comments
print report bad tab
2 comments total.
0 reply
NoobMuncher3000 41 Jan 10, 2008 05:02 PM

Good tab. BTW, where'd you find this demo?!

0 reply
skaman27 122 Mar 28, 2008 03:02 PM

o i don't remember where i got it, it was a while ago but if you search you probably could

guest
You may want to rate the tab now too:
select rating
Wanna post a correction for this tab? Suggest correction