Oops, an error
Loading. Please wait.

Famous Last Words bass

349 views 1 this week
no commentswrite comment
1 2 3 4 5
3 more votes to show rating
add to favorites
×
Save as Personal and add changes to this tab that will be seen only by you. Learn more ›
×
You can save this tab as Personal to edit and correct it or add notes. All changes will be seen only by you. Learn more »
launch autoscroll
font size
0
reset
guitar tuner
edit
Autoscroll
slow
fast
+/-
esc
set tempo
stop
Author
Difficulty
I know this may be a bit confusing how I wrote this out but it is better than the 
current "nothing".
First, I have the parts writen out as they appear chronologically and at the end I 
have the order you play them in.


standard tuning
G|----|
D|----|
A|----|
E|----|

a
|----------------------------12-12-12-------14-12-11-|
|----12-12-12----------14-10----------10-12----------|
|-10----------10-12-12-------------------------------|
|----------------------------------------------------|


b
|-------------------------------|
|-10----------10----------------|
|----10-10-12----10----------10-|
|-------------------10-10-12----|


c
|----------------------------------------------|
|-12-10-10-10----10----------10----------10----|
|-------------12----12-12-12----10-10-12----10-|
|----------------------------------------------|


d
|-------------------------------------------------------------------------------------12-12-11-11-|
|-------------------------------------------------10-10-10-10-10-10-10-10-12-12-14-14-------------|
|-------------------------10-10-10-10-10-10-10-10-------------------------------------------------|
|-12-12-12-12-12-12-12-12-------------------------------------------------------------------------|


e
|----------------------------------------------------------|
|-------------------------------------------------12-10----|
|-------------------------10-10-10-10-10-10-10-10-------10-|
|-12-12-12-12-12-12-12-12----------------------------------|


f
|-------------------------------------|
|-------------------10-10-10-12-12-12-|
|-10-10-10-12-12-12-------------------|
|-------------------------------------|


g
|-------|
|-10----|
|----10-|
|-------|


a-8 b-1 c-1 a-4 b-1 c-1 b-1 c-1 d-1 e-1 a-4 f-2 b-1 c-1 g-1 c-1 d-1 e-1 a-8

*tabbed by KP*

            
            
Suggest correction
Creating personal tab
Creating personal tab
You can edit any tab online and save it as your Personal.

You can edit, replace or remove any tab part or add personal notes – all changes will be seen only by you.

Personal tabs can be accessed anytime from any device, even offline.
Learn more »
Give kudos to tab author, rate the tab!
1 2 3 4 5
comments
print report bad tab
guest
You may want to rate the tab now too:
select rating
Wanna post a correction for this tab? Suggest correction