Oops, an error
Loading. Please wait.

Hungry Like The Wolf tab

version 2
version 2

Whole song

8,564 views 1 this week
no commentswrite comment
1 2 3 4 5
x 4
add to favorites
×
Save as Personal and add changes to this tab that will be seen only by you. Learn more ›
×
You can save this tab as Personal to edit and correct it or add notes. All changes will be seen only by you. Learn more »
launch autoscroll
font size
0
reset
how to read this tab
guitar tuner
edit
Autoscroll
slow
fast
+/-
esc
set tempo
stop
Author
This is the tab for Hungry Like The Wolf covered by Reel Big Fish with all the chords 
lead licks/solos/riffs, finally! What a nice guy, I am. :P

This song has many changes and riffs in it, so I'm not going to tab it in sections, I'm 
tab it all in one steady tab. Because of this, It might be a little easier to follow. I 
many timestamps to dispel any confusion.


0:39 Intro (After Scott's speech)                  Mini Riff
e||-------------------------------------------------------------------------|
B||-9--9-9---------------------------------9-9--9-------10-10b12b10---------|
G||-9--9-9---------------------------------9-9--9--9-12-------------12-9\---|
D||-9--9-9--7-7-6---7--6---repeat 2 times,-9-9--9---------------------------|
A||---------------7------7--------------------------------------------------|
E||-------------------------------------------------------------------------|

0:48 Main Riff, Quiet Verse                   0:52 Loud Verse Chords + Lick
e||-------------------------------------------------------------------------|
B||-9--9-9---------------------------------7--x-7-7--x-7--7--7-7------10----|
G||-9--9-9---------------------------------7--x-7-7--x-7--7--7-7---12---12--|
D||-9--9-9---7-6---7--6---repeat 2 times,--7--x-7-7--x-7--7--7-7------------|
A||--------------7------7------------------5--x-5-5--x-5--5--5-5------------|
E||-------------------------------------------------------------------------|

                             0:57 Main Riff, Quiet Verse
e||--------10--------------------------------------------------------------|
B||--10b12----12b10----------9--9-9----------------------------------------|
G||-----------------12-9\----9--9-9----------------------repeat 2 times,---|
D||--------------------------9--9-9---7--7-7-6---7--6----------------------|
A||--------------------------------------------7------7--------------------|
E||------------------------------------------------------------------------|

1:01 Loud Verse Lick
e||-------------------------6-5-3---------15-17b19b17-15-------------------|
B||-5-3-5-3-5-3-5-3-5-3-5-3-------5///17-----------------17-15-17\---------|
G||-Feel Free to h/p-------------------------------------------------------|
D||------------------------------------------------------------------------|
A||------------------------------------------------------------------------|
E||------------------------------------------------------------------------|

1:07 Chorus Chords
e||-----------------x--3---3--x--3--3--3---x--x--5---x--5--5--5--5--5--5---|
B||-5---x--5--5--5--x--3---3--x--3--3--3---x--x--6---x--6--6--6--6--6--6---|
G||-5---x--5--5--5--x--4---4--x--4--4--4---x--x--5---x--5--5--5--5--5--5---|
D||-5---x--5--5--5--x--5---5--x--5--5--5---x--x--7---x--7--7--7--7--7--7---|
A||-3---x--3--3--3---------------------------------------------------------|
E||------------------------------------------------------------------------|

1:12 Chorus Chords W/ Variation
e||-----------------x--3---3--x--3--3--3---x--x--5---x--5--5-x-------------|
B||-5---x--5--5--5--x--3---3--x--3--3--3---x--x--6---x--6--6-x-7--7-x-7-7--|
G||-5---x--5--5--5--x--4---4--x--4--4--4---x--x--5---x--5--5-x-7--7-x-7-7--|
D||-5---x--5--5--5--x--5---5--x--5--5--5---x--x--7---x--7--7-x-7--7-x-7-7--|
A||-3---x--3--3--3---------------------------------------------------------|
E||------------------------------------------------------------------------|

Repeat Chorus Chords at 1:17
Repeat Chorus Variation at 1:22

1:27 End of Chorus Riff            1:30 Main Riff, Quiet Verse
e||-12~~~~~~12~~~~~~12~~~~12~~~\\------------------------------------------|
B||-15b17~~~15b17~~~15b17~15b17\\--9--9-9----------------------------------|
G||--------------------------------9--9-9----------------------------------|
D||--------------------------------9--9-9--7-7-6---7--6---Repeat 2 Times---|
A||----------------------------------------------7------7------------------|
E||------------------------------------------------------------------------|

1:35 Loud Verse Lick       1:38 Audible solo riff
e||----12------------------------------------------------------------------|
B||------------------------------------------------------------------------|
G||-14b16--14--14b16b14-12-------------------------------------------------|
D||------------------------14~-14p12h14p12h14p12h14p12h14p12h14p12h14/17\\-|
A||-This is hard to hear,--------------------------------------------------|
E||-but listen closely-----It stars getting easier to hear during this part|

1:40 Main Riff                             1:44 Loud Verse Lick
e||--------------------------------------------15--17b19~~-17b19h17---------|
B||-9--9-9---------------------------------/17----------------------17-15---|
G||-9--9-9------------------------------------------------------------------|
D||-9--9-9--7-7-6---7--6---repeat 2 times,----------------------------------|
A||---------------7------7--------------------------------------------------|
E||-------------------------------------------------------------------------|


e||-------------------------------------------------------------------------|
B||-17b19b17-15-------------------------------------------------------------|
G||-------------16-15-----------------14b16b14-12---------------------------|
D||--------------------17b18b17--14-----------------------------------------|
A||-------------------------------------------------------------------------|
E||-------------------------------------------------------------------------|

1:51 Chorus Chords
e||-----------------x--3---3--x--3--3--3---x--x--5---x--5--5--5--5--5--5---|
B||-5---x--5--5--5--x--3---3--x--3--3--3---x--x--6---x--6--6--6--6--6--6---|
G||-5---x--5--5--5--x--4---4--x--4--4--4---x--x--5---x--5--5--5--5--5--5---|
D||-5---x--5--5--5--x--5---5--x--5--5--5---x--x--7---x--7--7--7--7--7--7---|
A||-3---x--3--3--3---------------------------------------------------------|
E||------------------------------------------------------------------------|

1:55 Chorus Chords W/ Variation
e||-----------------x--3---3--x--3--3--3---x--x--5---x--5--5-x-------------|
B||-5---x--5--5--5--x--3---3--x--3--3--3---x--x--6---x--6--6-x-7--7-x-7-7--|
G||-5---x--5--5--5--x--4---4--x--4--4--4---x--x--5---x--5--5-x-7--7-x-7-7--|
D||-5---x--5--5--5--x--5---5--x--5--5--5---x--x--7---x--7--7-x-7--7-x-7-7--|
A||-3---x--3--3--3---------------------------------------------------------|
E||------------------------------------------------------------------------|

Repeat Chorus Chords at 2:01

Repeat Chorus Variation at 2:06


2:11 - 2:26 Breakdwon, Scott starts singing scat, What a silly goose.


Repeat Chorus Chords at double speed at 2:26

Repeat Chorus Variation at double speed at 2:30

Double Speed Chorus Chords again at 2:34

Double Speed Chorus Variation again at 2:39

2:43 End Solo Jam - It's a bit quiet, but you can still hear it just fine.
e||-------------------------------------------------------------------------|
B||----16b18b16-16----------------------------------------------------------|
G||-17-------------17\-----17----17-----------------------------------------|
D||--------------------/19b20-19b20--17-16-15-----------19b20-19b20-17-16-15|
A||-------------------------------------------17b18-15\---------------------|
E||-------------------------------------------------------------------------|

2:48
e||-------------------------------------------------------------------------|
B||-------------------------------------------------------------------------|
G||------------------------12h14h15-12h14h15-12h14h15-12h14h15-12h14h15-12h-|
D||-17p15-------------------------------------------------------------------|
A||-------18-15\---3-3-3-3~~------------------------------------------------|
E||-------------------------------------------------------------------------|

2:53
e||-------------------------------------------------------------------------|
B||-------------------16--17b19b17-16--17b1917-16---------------------------|
G||-14h15-12h14h15//17----------------------------17---17p15--17p15--17p15--|
D||---------------------------------------------------------17-----17-----17|
A||-------------------------------------------------------------------------|
E||-------------------------------------------------------------------------|

2:56
e||-------------------------------------------------------------------------|
B||-----------------------------------------------------------13h15-13h16---|
G||-17p15--17p15--17p15---17----------------------------12h14---------------|
D||------17-----17-----17---------------------------------------------------|
A||---------------------------15--13----------------------------------------|
E||----------------------------------15--14--13--11--8----------------------|

3:01
e||-----------------------13------------------------------------------------|
B||-------13h15-13h16p13------13-----------------15--16\-13p10---13p10---13p|
G||-12h14-------------------------12--11----------------------12------12----|
D||--------------------------------------12--10-----------------------------|
A||-------------------------------------------------------------------------|
E||-------------------------------------------------------------------------|

3:04
e||-------------------------------------------------------------------------|
B||10--13p10--13p10--13p10--13p10--13p10---14p12-15p13-16p14-17p15-17p15-17^|
G||--12-----12-----12-----12-----12-----12----------------------------------|
D||-------------------------------------------------------------------------|
A||-------------------------------------------------------------------------|
E||-------------------------------------------------------------------------|

3:09 'Swing' build up            3:15 Go crazy        3:22 Mini End Riff
e||------------------------------0~---8~------------------------------------|
B||------------------------------1~---8~--------------/17b18-15--15----15b16|
G||------------------------------0~---9~----------------------------17------|
D||-------2--2--3--3--4--4--5----2~or-10~-----------------------------------|
A||-3--3-------------------------3~---10~-----------------------------------|
E||------------------------------0~---8~------------------------------------|

And that's it. I think this is accurate enough to sound fine, I hope you agree. Many 
RBF fans love this song, so I hope that many of you are happy with this, it was a lot of 
:D

            
            
Suggest correction
Creating personal tab
Creating personal tab
You can edit any tab online and save it as your Personal.

You can edit, replace or remove any tab part or add personal notes – all changes will be seen only by you.

Personal tabs can be accessed anytime from any device, even offline.
Learn more »
comments
print report bad tab
guest
You may want to rate the tab now too:
select rating
Wanna post a correction for this tab? Suggest correction