Oops, an error
Loading. Please wait.

Sell Out bass

version 4
version 4

Whole song

Interactive

3,292 views 9 this week
1 commentread comment
1 2 3 4 5
1 last vote to show rating
add to favorites
×
Save as Personal and add changes to this tab that will be seen only by you. Learn more ›
×
You can save this tab as Personal to edit and correct it or add notes. All changes will be seen only by you. Learn more »
launch autoscroll
font size
0
reset
guitar tuner
backing track
0:00
0:00
edit
Autoscroll
slow
fast
+/-
esc
set tempo
stop
Intro x1
G|---------------------------------------------------------------------------|
D|-6-6-55-6--5-8--3-6-6-55-6---5-8--3--6-6-55-6---5-8--3--6-6-55-6-----------|
A|----------6----4-----------6----4--------------6----4----------------------|
E|---------------------------------------------------------------------------|
Main Riff x2
G|---------------------------------------------------------------------------|
D|-------------------------------5h6h8-6-6666-8-6-5--------------------------|
A|-------------------4-4-444-6-66--------------------6-4-444--6-4-3-1--------|
E|-4-4-444-6-6-666-----------------------------------------------------------|
Verse x2
G|----------------------------------------|
D|------------------------3-6-3-----------|
A|---3-6-3-----4--------4--------6-4-3-1--|
E|-4----------6--6--6---------------------|
Bridge x1
G|------------------------------------------------------------------------------|
D|------------------------------------------------------------------------------|
A|-----------------4-4-444--6-4-3-1---------------------------------------------|
E|-4-4-444-6-6-666--------------------------------------------------------------|
Verse x1
Verse variation x1
G|--------------------------------------8-----8--|
D|-------------------------------------8-8---8-8-|
A|---3-6-3---4-----3-33-33—4-44-44---6-----6-----|
E|-4-------6---6--6------------------------------|
Pre-Chorus
G|---------------------------------------------------------------|
D|---------------------------------------------------------------|
A|--444---------444--------444--------4443--6-6-4-5-6/-----------|
E|------4----------4----------4----------------------------------|
slide into chorus:
Chorus x4 (Pop these)     on last repeat (4th) hold the a6
G|-------------|
D|---6---------|
A|-----3\4-4-6-|
E|-4-----------|

Main Riff       x2
Verse           x3
Verse Variation x1
Pre-Chorus      x1
Chorus          x3 (+last repeat of chorus in which you hold the a6)
Intro           x1
G|------------------------------------------------------------------|
D|---------------------------------------------------------44-3-----|
A|-3-3-333-4-4-444-----------------3-3-333-4-4-444---3-4-6------6-4-|
E|-----------------4-4-444-4-4-444-----------------4----------------|

G|-------------------------------------------------------------8-----8--|
D|-------------------------44-3-------------------------------8-8---8-8-|
A|---------4-4-444---3-4-6------6-4---------3-3-333-4-4-444-6-----6-----|
E|-6-6-666---------4----------------6-6-666-----------------------------|

Pre-Chorus   x1
Chorus x2
Main Riff x2
Outro
G|------------------------------------------|
D|------------------------------------------|
A|----------------------44444444--66666666--| X3
E|-444444444--66666666----------------------|

G|------------------------------------------|
D|-66666666--88888888-----------------------|
A|----------------------44444444--66666666--|
E|------------------------------------------|

            
            
Suggest correction
Creating personal tab
Creating personal tab
You can edit any tab online and save it as your Personal.

You can edit, replace or remove any tab part or add personal notes – all changes will be seen only by you.

Personal tabs can be accessed anytime from any device, even offline.
Learn more »
Give kudos to tab author, rate the tab!
1 2 3 4 5
comments
print report bad tab
1 comment total.
0 reply
drpdrp97 124 Apr 09, 2013 03:51 PM

SPOT ON thanks so much!

guest
You may want to rate the tab now too:
select rating
Wanna post a correction for this tab? Suggest correction