Oops, an error
Loading. Please wait.

Snoop Dog Baby bass

696 views 1 this week
no commentswrite comment
1 2 3 4 5
3 more votes to show rating
add to favorites
×
Save as Personal and add changes to this tab that will be seen only by you. Learn more ›
×
You can save this tab as Personal to edit and correct it or add notes. All changes will be seen only by you. Learn more »
launch autoscroll
font size
0
reset
guitar tuner
edit
Autoscroll
slow
fast
+/-
esc
set tempo
stop
Author
Band: REEL BIG FISH
Song: SNOOP DOG, BABY (Turn the Radio Off Version (1996))

Bassist: Matt Wong
Tabbed By: Sanest
Tuning: EADG

/ = Slide
r = Ring

INTRO
G:-------------------------------|
D:-------------------------------|
A:-------------------------02320-|
E:-/13/-8r---7r---5r--5r---------|

VERSE/MAIN RIFF
G:----------------------------|
D:--------5--------0--55-2-0--|
A:---0---5-7--02h33-3---------|
E:-33-3-----------------------|

PRE-CHORUS
G:------------------|
D:------------------|
A:-3323-323-323-323-|
E:------------------|

CHORUS
G:--------------------------10-12-14-/16-14-12/--|
D:----7--------9----------12---------------------|
A:-55---5--/77---7--/1010------------------------|
E:-----------------------------------------------|

G:--------------------------10------------||--------------------|
D:----7--------9----------12---12-10------||--------------------|
A:-55---5--/77---7--/1010------------12/--||----3-32-20-002320--|
E:----------------------------------------||--------------------|

OTHER CHORUSES x2              ALT. ENDING
G:---------------------------||-----------10------------|
D:-----7-------9-------------||--------12----12-10------|
A:-/55-----/77------/1010/---||--/1010-------------12/--|
E:---------------------------||-------------------------|

BRIDGE/FAST PART
G:------------------|
D:------------------|
A:----000-2333-222--|
E:-333--------------|

PART 2 x2
G:---------------------------||------------------|
D:-----------5r--/1212-10----||------------------|
A:-5-5-55-77-------------12/-||--3-32-20-002320--|
E:---------------------------||------------------|

END ON:
E:--3-3--

ORDER:
INTRO x1
MAIN RIFF x4
PAUSE
VERSE x6
PRE-CHORUS
CHORUS
VERSE x8
PRE-CHORUS
ALT. CHORUS
PAUSE
BRIDGE/FAST PART x6
PART 2 x2
MAIN RIFF x8
PRE-CHORUS
ALT. CHORUS

I have to credit a previous tab of this song as without, it would have been especially difficult
to tab the main riff/verse section. So thanks 'bass_lobster'.

            
            
Suggest correction
Creating personal tab
Creating personal tab
You can edit any tab online and save it as your Personal.

You can edit, replace or remove any tab part or add personal notes – all changes will be seen only by you.

Personal tabs can be accessed anytime from any device, even offline.
Learn more »
Give kudos to tab author, rate the tab!
1 2 3 4 5
comments
print report bad tab
guest
You may want to rate the tab now too:
select rating
Wanna post a correction for this tab? Suggest correction