Oops, an error
Loading. Please wait.

Trendy tab

7,934 views 6 this week
1 commentread comment
1 2 3 4 5
x 4
add to favorites
×
Save as Personal and add changes to this tab that will be seen only by you. Learn more ›
×
You can save this tab as Personal to edit and correct it or add notes. All changes will be seen only by you. Learn more »
launch autoscroll
font size
0
reset
how to read this tab
guitar tuner
edit
Autoscroll
slow
fast
+/-
esc
set tempo
stop
Trendy
Reel Big Fish
Turn The Radio Off (1996)

This song is AWESOME


Intro

Play this four times;
e---8----x-x---6---x---3---x-x-x--x-x-x----|
B---8----x-x---6---x---3---x-x-x--x-x-x----|
G---9----x-x---7---x---4---x-x-x--x-x-x----|
D---10---x-x---8---x---5---x-x-x--x-x-x----|
A---10---x-x---8---x---5---x-x-x--x-x-x----|
E---8----x-x---6---x---3---x-x-x--x-x-x----|

 Everybodys doin' the fish
   Yeah      Yeah     Yeah


Then play this three times;
e------------------------------------------|
B------------------------------------------|
G--5------3--------------------------------|
D--5------3------5-------------------------|
A--3------1------5-------------------------|
E----------------3---3---3---1--2--3-------|

Everybodys doin' the fish
  Yeah   Yeah   Yeah

Then this;
e----------------------3--------------------------------------|
B------------------3h5----5p3---------------------------------|
G--5------3-------------------4----5-5--4--2--0---------------|
D--5------3---------------------------------------------------|
A--3------1----------------------------------------3-3-2-0----|
E----------------------------------------------------------3--|

  Yeah    Yeah


Verse
Play this four times with the trumpets, then twice with the vocals
Off-beat Ska strumming

e---3--3--3--3----3--3--3---|--3--3--3--3----1--1--1------|
B---3--3--3--3----5--5--5---|--3--3--3--3----1--1--1------|
G---4--4--4--4----5--5--5---|--4--4--4--4----2--2--2------|
D---------------------------|-----------------------------|
A---------------------------|-----------------------------|
E---------------------------|-----------------------------|

Its not so bad being trendy, everyone who looks like me is my friend
Please dont hate me because im trendy, theyre not gonna laugh at me again


Chorus

e------------------------------|----------------------------------|
B------------------------------|-----------------7--8--10--8--7~--|
G-------5----7--7--------------|-------5----7---------------------|
D--5----5----7--7--------------|--5----5----7---------------------|
A--5----3----5--5---5--3h5p3---|--5----3----5---------------------|
E--3---------------------------|--3-------------------------------|

  One  of   us                    One  of   us

e------------------------------|----------------------------------|
B------------------------------|----------------------------------|
G-------5----7--7--------------|-------5----7---------------------|
D--5----5----7--7--------------|--5----5----7---------------------|
A--5----3----5--5---5--3h5p3---|--5----3----5---------------------|
E--3---------------------------|--3-------------------------------|

  One  of   us                    One  of...

Verse 2

Play this four times, with ska strumming
e---3--3--3--3----3--3--3---|--3--3--3--3----2--2--3------|
B---3--3--3--3----5--5--5---|--3--3--3--3----3--3--3------|
G---4--4--4--4----5--5--5---|--4--4--4--4----2--2--2------|
D---------------------------|-----------------------------|
A---------------------------|-----------------------------|
E---------------------------|-----------------------------|

 Everybody does it
 And I wonder why dont you?
 Everybody does it
 Maybe you should to?

then this (with ska strumming)

e---3--3--3--3--3--3--3--3----2--2--2--2----5--5----|
B---5--5--5--5--5--5--5--5----3--3--3--3----7--7----|
G---5--5--5--5--5--5--5--5----4--4--4--4----7--7----|
D---------------------------------------------------|
A---------------------------------------------------|
E---------------------------------------------------|

  Cause you dont wanna be left out
  You wanna be cool!

Then play the chorus again

then the third verse
this is basically the same as the first, but it changes at the end;

e---3--3--3--3----3--3--3---|--3--3--3--3----1--1--1------|
B---3--3--3--3----5--5--5---|--3--3--3--3----1--1--1------|
G---4--4--4--4----5--5--5---|--4--4--4--4----2--2--2------|
D---------------------------|-----------------------------|
A---------------------------|-----------------------------|
E---------------------------|-----------------------------|

Its not so bad being trendy, everyone who looks like me is my friend

                                            |-------Palm--Mute---------|
e---3--3--3--3----3--3--3---|--3--3--3--3------------------------------|
B---3--3--3--3----5--5--5---|--3--3--3--3------------------------------|
G---4--4--4--4----5--5--5---|--4--4--4--4------------------------------|
D---------------------------|----------------3--3--3--3--3--3--3--3----|
A---------------------------|----------------3--3--3--3--3--3--3--3----|
E---------------------------|----------------1--1--1--1--1--1--1--1----|

Please dont hate me because im trendy, theyre not gonna laugh at me again


Then its back to the chorus

then the bit straight after goes..

e-----------------------------|
B-----------------------------|
G--7--7----5----4----2--------|
D--7--7----5----4----2--------|
A--5--5----3----2----0--------|
E-----------------------------|

then this bit 8 times
e------------------------|
B------------------------|
G----------4----5--------|
D--5--5----4----5--------|
A--5--5----2----3--------|
E--3--3------------------|

everyones making fun of me
cause they say im so trendy
cause i do what others do
they'll me fun of me, they'll make fun of you

e---------------------------------------------------|
B---------------------------------------------------|
G--7--7--7--7--7--7--7--7------------------2--3--5--|
D--7--7--7--7--7--7--7--7---------2--3--5-----------|
A--5--5--5--5--5--5--5--5----3--5-------------------|
E---------------------------------------------------|

i dont wanna be left out
i wanna be cool!

outro
this three times;
e--------------------------------------------|
B--------------------------------------------|
G--5----3-------------5--5----3--3-----------|
D--5----3----5--------5--5----3--3----5------|
A--3----1----5--------3--3----1--1----5------|
E------------3------------------------3------|

then

e----------------------------------|
B----------------------------------|
G--5----3-------------5--5----3----|
D--5----3----5--------5--5----3----|
A--3----1----5--------3--3----1----|
E------------3---------------------|

e------3-------------------------------------------|
B--3h5---5p3---------------------------------------|
G------------4----5--5--4--2--0--------------------|
D--------------------------------------------------|
A----------------------------------3-3--2--0-------|
E---------------------------------------------3----|

and finish with

e----5/6----|
B----5/6----|
G-----------|
D-----------|
A-----------|
E-----------|

the end =]

            
            
Suggest correction
Creating personal tab
Creating personal tab
You can edit any tab online and save it as your Personal.

You can edit, replace or remove any tab part or add personal notes – all changes will be seen only by you.

Personal tabs can be accessed anytime from any device, even offline.
Learn more »
comments
print report bad tab
1 comment total.
0 reply
grapefruit7 785 Sep 04, 2013 11:50 AM

thanks for the tab its perfect

guest
You may want to rate the tab now too:
select rating
Wanna post a correction for this tab? Suggest correction