Oops, an error
Loading. Please wait.

Valerie tab

version 2
version 2

Whole song

2,299 views 1 this week
no commentswrite comment
1 2 3 4 5
2 more votes to show rating
add to favorites
×
Save as Personal and add changes to this tab that will be seen only by you. Learn more ›
×
You can save this tab as Personal to edit and correct it or add notes. All changes will be seen only by you. Learn more »
launch autoscroll
font size
0
reset
how to read this tab
guitar tuner
edit
Autoscroll
slow
fast
+/-
esc
set tempo
stop
-------------------------------------------------------------------------------
     Reel Big Fish - Valerie
-------------------------------------------------------------------------------
Tabbed by: lessthan22fish
Email: Lessthan22fish@yahoo.com

Tuning:EADGBe (Standard)

Bass Intro: 4x
G|---------------------------------------------------------------------------|
D|---------------------------------------------------------------------------|
A|---5-5-5-5-4-4-4-4-2-2-2-2-0-0-0-0-----------------------------------------|
E|---------------------------------------------------------------------------|

Intro:       [This Is Played twice before the Verse, and is also the Chorus]
e|----------------------------[------CHORUS--------------]---------------|
B|----------------------------[--------------------------]---------------|
G|---7------------------------[-7--6--4------------------]---------------|
D|---x-(16x)---3--------------[-7--6--4--7--5--4---------]---------------|
A|---5---------3-----------0--[-5--5--2--7--5--4--------0]---------------|
E|-------------5-----0h2h3----[----------5--3--2---0h2h3-]---------------|


  Verse:  D   A   C   G   Played With Ska Upstrokes, listen for Timing.
e|--------5---5---3---3-----------------------------------------------------|
B|--------7---5---5---3-----------------------------------------------------|
G|--------7---6---5---4-----------------------------------------------------|
D|--------7---7---5---5-----------------------------------------------------|
A|--------5---7---3---5-----------------------------------------------------|
E|--------x---5---x---3-----------------------------------------------------|


Pre Chorus: "Well You Ruined My Life..."
e|-----------------------------------------------------------------------------|
B|-----------------------------------------------------------------------------|
G|-----------------------------------------------------------------------------|
D|-4--4-4--5--5-3---7--------5-------------------------------------------------|
A|-4--4-4--5--5-3---7--(3x)--5---------0---------------------------------------|
E|-2--2-2--3--3-3---5--------3---0h2h3 ----------------------------------------|


 Solo:
e|-----------------------------------------------------------------------|
B|-9-9-9h10p9-------14-12-12-10-9-10-12----------------------------------|
G|------------9-------------------------9~-------------------------------|
D|--------------9-------------------------9--11--------------------------|
A|----------------------------------------------9--11b12r11--9-----------|
E|-----------------------------------------------------------------------|

e|-12b13r12--11b12r11--9b10r9--7b8r7--5p4h5p4h5p4h5p4--2-4-5-7-----------|
B|-----------------------------------------------------------------------|
G|-----------------------------------------------------------------------|
D|-----------------------------------------------------------------------|
A|-----------------------------------------------------------------------|
E|-----------------------------------------------------------------------|

   Tapping Right Here:
e|--h12p11p7--h16p12p7--h17p12p7--h19p12p7--h17p12p7--h16p12p7-h12------|
B|----------------------------------------------------------------------|
G|----------------------------------------------------------------------|
D|----------------------------------------------------------------------|
A|----------------------------------------------------------------------|
E|----------------------------------------------------------------------|

e|-20b21r20-20--17-19-16-17-14-16-14-16-12----------------------|
B|--------------------------------------------------------------|
G|--------------------------------------------------------------|
D|--------------------------------------------------------------|
A|--------------------------------------------------------------|
E|--------------------------------------------------------------|

That's pretty much it. The other tab looked kind of wrong, so i thought i'd give it a
I'm pretty sure the tapping part is almost completely correct, if you find somewhere i
wrong be sure to comment. Check out my other tab for "Backstabber" by [Spunge] if you 
another great ska song to learn. :)

| /  slide up
| \  slide down
| h  hammer-on
| p  pull-off
| ~  vibrato
| +  harmonic
| x  Mute note
===============================================================================

            
            
Suggest correction
Creating personal tab
Creating personal tab
You can edit any tab online and save it as your Personal.

You can edit, replace or remove any tab part or add personal notes – all changes will be seen only by you.

Personal tabs can be accessed anytime from any device, even offline.
Learn more »
Give kudos to tab author, rate the tab!
1 2 3 4 5
comments
print report bad tab
guest
You may want to rate the tab now too:
select rating
Wanna post a correction for this tab? Suggest correction