Oops, an error
Loading. Please wait.

Where Have You Been tab

version 1
version 1

Whole song

Interactive

47,046 views 18 this week
8 commentsread comments
1 2 3 4 5
x 18
add to favorites
×
Save as Personal and add changes to this tab that will be seen only by you. Learn more ›
×
You can save this tab as Personal to edit and correct it or add notes. All changes will be seen only by you. Learn more »
launch autoscroll
font size
0
reset
how to read this tab
guitar tuner
edit
Autoscroll
slow
fast
+/-
esc
set tempo
stop
Reel Big Fish
Where Have You Been?
Cheer Up!
standard tuning

intro w/ slight distortion
   Am             C                   F                    G
e-------------------------------------------1--------------------3-----------|
B------1-------1--------1-----------------------1-------------------3--------|
G--------2-----------0-----0-----0-------2----------2---------4--------4-----|
D----2------2-----------------2-------3----------------3-3/5--------------5--|
A--0--------------3----------------------------------------------------------|
E----------------------------------------------------------------------------|
   Am             C                   F                    G
e-------------------------------------------1--------------------3-----------|
B------1-------1--------1-----------------------1-------------------3--------|
G--------2-----------0-----0-----0-------2----------2---------4--------4-----|
D----2------2-----------------2-------3----------------3-3/5--------------5--|
A--0--------------3----------------------------------------------------------|
E----------------------------------------------------------------------------|
   Am             C                   F                    G
e-------------------------------------------1--------------------3-----------|
B------1-------1--------1-----------------------1-------------------3--------|
G--------2-----------0-----0-----0-------2----------2---------4--------4-----|
D----2------2-----------------2-------3----------------3-3/5--------------5--|
A--0--------------3----------------------------------------------------------|
E----------------------------------------------------------------------------|
   Am             C                   F
e------------------------------------------|
B------1-------1--------1------------------|
G--------2-----------0-----0-----0------2--|
D----2------2-----------------2--------3---|
A--0--------------3-------------------3----|
E------------------------------------------|

interlude
gtr 1
e-------------------------------------------------------------|
B------5-5----5-5-----3-3---3-3-------------------------------|
G--2-2------2-----0-0-----0--------5-5---5-5-------7-7---7-7--|
D--------------------------------3-----3-----3/5-5-----5------|
A-------------------------------------------------------------|
E-------------------------------------------------------------|

gtr 2
   Am             C5             F              G
e--------------------------------1-x---1--1-1---3-x---3--3-3--|
B--1-x---1--1-1---5-x---5--5-5---1-x---1--1-1---3-x---3--3-3--|
G--2-x---2--2-2---5-x---5--5-5---2-x---2--2-2---4-x---4--4-4--|
D--2-x---2--2-2---5-x---5--5-5---3-x---3--3-3---5-x---5--5-5--|
A--0-x---0--0-0---3-x---3--3-3---3-x---3--3-3---3-x---5--5-5--|
E--------------------------------1-x---1--1-1---3-x---3--3-3--|

gtr 1
e-------------------------------------------------------------|
B------5-5----5-5-----3-3---3-3-------------------------------|
G--2-2------2-----0-0-----0--------5-5---5-5-------7-7---7-7--|
D--------------------------------3-----3-----3/5-5-----5------|
A-------------------------------------------------------------|
E-------------------------------------------------------------|


gtr 2
   Am             C5             F              G
e--------------------------------1-x---1--1-1---3-x---3--3-3--|
B--1-x---1--1-1---5-x---5--5-5---1-x---1--1-1---3-x---3--3-3--|
G--2-x---2--2-2---5-x---5--5-5---2-x---2--2-2---4-x---4--4-4--|
D--2-x---2--2-2---5-x---5--5-5---3-x---3--3-3---5-x---5--5-5--|
A--0-x---0--0-0---3-x---3--3-3---3-x---3--3-3---3-x---5--5-5--|
E--------------------------------1-x---1--1-1---3-x---3--3-3--|

verse
gtr 1
              Am             C                   F                    G
e------------------------------------------------------1--------------------|
B-----------------1-------1--------1-----------------------1----------------|
G-------------------2-----------0-----0-----0-------2----------2---------4--|
D---------------2------2-----------------2-------3----------------3-3/5-----|
A-------------0--------------3----------------------------------------------|
E---------------------------------------------------------------------------|

e--3----------|
B----3--------|
G-------4-----|
D----------5--|
A-------------|
E-------------|

gtr 2
   Am
e--------------------|
B--1~----------------|
G--2~----------------|
D--2~----------------|
A--0~-----------[0]--|
E--------------------|

gtr 1
   Am             C                   F                    G
e-------------------------------------------1--------------------3-----------|
B------1-------1--------1-----------------------1-------------------3--------|
G--------2-----------0-----0-----0-------2----------2---------4--------4-----|
D----2------2-----------------2-------3----------------3-3/5--------------5--|
A--0--------------3----------------------------------------------------------|
E----------------------------------------------------------------------------|
   Am             C                   F                    G
e-------------------------------------------1--------------------3-----------|
B------1-------1--------1-----------------------1-------------------3--------|
G--------2-----------0-----0-----0-------2----------2---------4--------4-----|
D----2------2-----------------2-------3----------------3-3/5--------------5--|
A--0--------------3----------------------------------------------------------|
E----------------------------------------------------------------------------|
   Am             C                   F                    G
e-------------------------------------------1--------------------3-----------|
B------1-------1--------1-----------------------1-------------------3--------|
G--------2-----------0-----0-----0-------2----------2---------4--------4-----|
D----2------2-----------------2-------3----------------3-3/5--------------5--|
A--0--------------3----------------------------------------------------------|
E----------------------------------------------------------------------------|

   Am             C                   F
e-------------------------------------------1---------------|
B------1-------1--------1-----------------------1-----------|
G--------2-----------0-----0-----0-------2----------2-------|
D----2------2-----------------2-------3----------------3-3--|
A--0--------------3-----------------------------------------|
E-----------------------------------------------------------|

gtrs 1&2 w/ heavy distortion
e--------------------------|
B--------------------------|
G--------------------------|
D--5---5--5-5-5--5--5-5-5--|
A--5-x-5--5-5-5--5--5-5-5--|
E--3-x-3--3-3-3--3--3-3-3--|
pm -   -  - - -

chorus
both gtrs w/ heavy distortion
   C5                G5                F5                G5
e------------------------------------------------------------------------|
B------------------------------------------------------------------------|
G--5---5--5-5-5-5--------------------------------------------------------|
D--5---5--5-5-5-5----5---5--5-5-5-5----3---3--3-3-3-3----5---5--5-5-5-5--|
A--3---3--3-3-3-3----5---5--5-5-5-5----3---3--3-3-3-3----5---5--5-5-5-5--|
E--------------------3---3--3-3-3-3----1---1--1-1-1-1----3---3--3-3-3-3--|
   C5                G5                F5
e------------------------------------------------------------------------|
B------------------------------------------------------------------------|
G--5---5--5-5-5-5--------------------------------------------------------|
D--5---5--5-5-5-5----5---5--5-5-5-5----3---3--3-3-3-3--3-3-3-3-3--3-3-3--|
A--3---3--3-3-3-3----5---5--5-5-5-5----3---3--3-3-3-3--3-3-3-3-3--3-3-3--|
E--------------------3---3--3-3-3-3----1---1--1-1-1-1--1-1-1-1-1--1-1-1--|
   C5                G5                F5                G5
e------------------------------------------------------------------------|
B------------------------------------------------------------------------|
G--5---5--5-5-5-5--------------------------------------------------------|
D--5---5--5-5-5-5----5---5--5-5-5-5----3---3--3-3-3-3----5---5--5-5-5-5--|
A--3---3--3-3-3-3----5---5--5-5-5-5----3---3--3-3-3-3----5---5--5-5-5-5--|
E--------------------3---3--3-3-3-3----1---1--1-1-1-1----3---3--3-3-3-3--|
   C5                G5                F5
e------------------------------------------------------------------------|
B------------------------------------------------------------------------|
G--5---5--5-5-5-5--------------------------------------------------------|
D--5---5--5-5-5-5----5---5--5-5-5-5----3---3--3-3-3-3--3-3-3-3-3--3-3-3--|
A--3---3--3-3-3-3----5---5--5-5-5-5----3---3--3-3-3-3--3-3-3-3-3--3-3-3--|
E--------------------3---3--3-3-3-3----1---1--1-1-1-1--1-1-1-1-1--1-1-1--|

interlude
verse
chorus

bridge
both gtrs
   A5                 G5                 F5                G5
e-----x-x---x--x-x------x-x----x--x-x------x-x---x--x-x------x-x---x--x-x--|
B-----x-x---x--x-x------x-x----x--x-x------x-x---x--x-x------x-x---x--x-x--|
G-----x-x---x--x-x------x-x----x--x-x------x-x---x--x-x------x-x---x--x-x--|
D--7--x-x---x--x-x--7\5-x-x----x--x-x--5\3-x-x---x--x-x--3/5-x-x---x--x-x--|
A--7--x-x---x--x-x--7\5-x-x----x--x-x--5\3-x-x---x--x-x--3/5-x-x---x--x-x--|
E--5--x-x---x--x-x--5\3-x-x----x--x-x--3\1-x-x---x--x-x--1/3-x-x---x--x-x--|
   C5                G5                F5                G5
e------------------------------------------------------------------------|
B------------------------------------------------------------------------|
G--5---5--5-5-5-5--------------------------------------------------------|
D--5---5--5-5-5-5----5---5--5-5-5-5----3---3--3-3-3-3----5---5--5-5-5-5--|
A--3---3--3-3-3-3----5---5--5-5-5-5----3---3--3-3-3-3----5---5--5-5-5-5--|
E--------------------3---3--3-3-3-3----1---1--1-1-1-1----3---3--3-3-3-3--|
   A5            G5           F5                G5
e-----x-x---x------x-x---x------x-x---x------x-x---x--|
B-----x-x---x------x-x---x------x-x---x------x-x---x--|
G-----x-x---x------x-x---x------x-x---x------x-x---x--|
D--7--x-x---x--7\5-x-x---x--5\3-x-x---x--3/5-x-x---x--|
A--7--x-x---x--7\5-x-x---x--5\3-x-x---x--3/5-x-x---x--|
E--5--x-x---x--5\3-x-x---x--3\1-x-x---x--1/3-x-x---x--|
   C5                G5                F5                G5
e------------------------------------------------------------------------|
B------------------------------------------------------------------------|
G--5---5--5-5-5-5--------------------------------------------------------|
D--5---5--5-5-5-5----5---5--5-5-5-5----3---3--3-3-3-3----5---5--5-5-5-5--|
A--3---3--3-3-3-3----5---5--5-5-5-5----3---3--3-3-3-3----5---5--5-5-5-5--|
E--------------------3---3--3-3-3-3----1---1--1-1-1-1----3---3--3-3-3-3--|
   C5                              G5                              F5
e----------------------------------------------------------------------------|
B----------------------------------------------------------------------------|
G--5---5---5---5---5---5---5---5---------------------------------------------|
D--5---5---5---5---5---5---5---5---5---5---5---5---5---5---5---5---3--3-3--3-|
A--3---3---3---3---3---3---3---3---5---5---5---5---5---5---5---5---3--3-3--3-|
E----------------------------------3---3---3---3---3---3---3---3---1--1-1--1-|
             G5
e-------------------------------|
B-------------------------------|
G-------------------------------|
D--3-3-3-3-3-5-5--5-5--5-5-5-5--|
A--3-3-3-3-3-5-5--5-5--5-5-5-5--|
E--1-1-1-1-1-3-3--3-3--3-3-3-3--|
   C5                              G5                              F5
e----------------------------------------------------------------------------|
B----------------------------------------------------------------------------|
G--5---5---5---5---5---5---5---5---------------------------------------------|
D--5---5---5---5---5---5---5---5---5---5---5---5---5---5---5---5---3--3-3--3-|
A--3---3---3---3---3---3---3---3---5---5---5---5---5---5---5---5---3--3-3--3-|
E----------------------------------3---3---3---3---3---3---3---3---1--1-1--1-|
             G5
e-------------------------------|
B-------------------------------|
G-------------------------------|
D--3-3-3-3-3-5-5--5-5--5-5-5-5--|
A--3-3-3-3-3-5-5--5-5--5-5-5-5--|
E--1-1-1-1-1-3-3--3-3--3-3-3-3--|

solo (attempted)
gtr 1
e-----------------------------------------------------------------------------|
B-----------------------------------------------------------------------------|
G--3-/-5--5-5--5-5-5-5p3-1-1----------------------------3-/-5--5-5/12--10-8-8-|
D------------------------------1/3---3-3/5--5p3-3-1-1-------------------------|
A-----------------------------------------------------------------------------|
E-----------------------------------------------------------------------------|

e-------------------------------|
B-------------------------------|
G--8----------------------------|
D-----1/3--3-3/5--5-5/7--7-7/9--|
A-------------------------------|
E-------------------------------|
   C5            G5            F5            G5         C5            G5
e----------------------------------------------------------------------------|
B----------------------------------------------------------------------------|
G--5--5-5-5-5-5-----------------------------------------5--5-5-5-5-5---------|
D--5--5-5-5-5-5--5--5-5-5-5-5--3--3-3-3-3-3--5-5-5-5-5--5--5-5-5-5-5--5--5-5-|
A--3--3-3-3-3-3--5--5-5-5-5-5--3--3-3-3-3-3--5-5-5-5-5--3--3-3-3-3-3--5--5-5-|
E----------------3--3-3-3-3-3--1--1-1-1-1-1--3-3-3-3-3----------------3--3-3-|
   G5     F5            G5
e------------------------------------|
B------------------------------------|
G------------------------------------|
D--5-5-5--3--3-3-3-3-3--5-5-5-5-5-5--|
A--5-5-5--3--3-3-3-3-3--5-5-5-5-5-5--|
E--3-3-3--1--1-1-1-1-1--3-3-3-3-3-3--|

solo (cont'd)
gtr 1
e---------------------------------------------|
B---------------------------------------------|
G---------------------------------------------|
D--9-9h10~------------------------------------|
A---------------------------------------------|
E---------------------------------------------|

final verse
gtr 1
              Am             C                   F                    G
e------------------------------------------------------1--------------------|
B-----------------1-------1--------1-----------------------1----------------|
G-------------------2-----------0-----0-----0-------2----------2---------4--|
D---------------2------2-----------------2-------3----------------3-3/5-----|
A-------------0--------------3----------------------------------------------|
E---------------------------------------------------------------------------|

e--3----------|
B----3--------|
G-------4-----|
D----------5--|
A-------------|
E-------------|

gtr 2
   Am
e--------------------|
B--1~----------------|
G--2~----------------|
D--2~----------------|
A--0~-----------[0]--|
E--------------------|

gtr 1
   Am             C                   F                    G
e-------------------------------------------1--------------------3-----------|
B------1-------1--------1-----------------------1-------------------3--------|
G--------2-----------0-----0-----0-------2----------2---------4--------4-----|
D----2------2-----------------2-------3----------------3-3/5--------------5--|
A--0--------------3----------------------------------------------------------|
E----------------------------------------------------------------------------|
   Am             C                   F                    G
e-------------------------------------------1--------------------3-----------|
B------1-------1--------1-----------------------1-------------------3--------|
G--------2-----------0-----0-----0-------2----------2---------4--------4-----|
D----2------2-----------------2-------3----------------3-3/5--------------5--|
A--0--------------3----------------------------------------------------------|
E----------------------------------------------------------------------------|
   Am             C                   F                    G
e-------------------------------------------1--------------------3-----------|
B------1-------1--------1-----------------------1-------------------3--------|
G--------2-----------0-----0-----0-------2----------2---------4--------4-----|
D----2------2-----------------2-------3----------------3-3/5--------------5--|
A--0--------------3----------------------------------------------------------|
E----------------------------------------------------------------------------|
   Am             C                 F5
e-----------------------------------------------|
B------1-------1--------1-----------------------|
G--------2-----------0-----0-----0--------------|
D----2------2-----------------2-----3-x---------|
A--0--------------3-----------------3-x---------|
E-----------------------------------1-x---------|

chorus
both gtrs w/ heavy distortion
   C5                G5                F5                G5
e------------------------------------------------------------------------|
B------------------------------------------------------------------------|
G--5---5--5-5-5-5--------------------------------------------------------|
D--5---5--5-5-5-5----5---5--5-5-5-5----3---3--3-3-3-3----5---5--5-5-5-5--|
A--3---3--3-3-3-3----5---5--5-5-5-5----3---3--3-3-3-3----5---5--5-5-5-5--|
E--------------------3---3--3-3-3-3----1---1--1-1-1-1----3---3--3-3-3-3--|
   C5                G5                F5
e------------------------------------------------------------------------|
B------------------------------------------------------------------------|
G--5---5--5-5-5-5--------------------------------------------------------|
D--5---5--5-5-5-5----5---5--5-5-5-5----3---3--3-3-3-3--3-3-3-3-3--3-3-3--|
A--3---3--3-3-3-3----5---5--5-5-5-5----3---3--3-3-3-3--3-3-3-3-3--3-3-3--|
E--------------------3---3--3-3-3-3----1---1--1-1-1-1--1-1-1-1-1--1-1-1--|
   C5                G5                F5                G5
e------------------------------------------------------------------------|
B------------------------------------------------------------------------|
G--5---5--5-5-5-5--------------------------------------------------------|
D--5---5--5-5-5-5----5---5--5-5-5-5----3---3--3-3-3-3----5---5--5-5-5-5--|
A--3---3--3-3-3-3----5---5--5-5-5-5----3---3--3-3-3-3----5---5--5-5-5-5--|
E--------------------3---3--3-3-3-3----1---1--1-1-1-1----3---3--3-3-3-3--|
   C5                G5                F5
e------------------------------------------------------------------------|
B------------------------------------------------------------------------|
G--5---5--5-5-5-5--------------------------------------------------------|
D--5---5--5-5-5-5----5---5--5-5-5-5----3---3--3-3-3-3--3-3-3-3-3--3-3-3--|
A--3---3--3-3-3-3----5---5--5-5-5-5----3---3--3-3-3-3--3-3-3-3-3--3-3-3--|
E--------------------3---3--3-3-3-3----1---1--1-1-1-1--1-1-1-1-1--1-1-1--|
   C5                G5                F5                G5
e------------------------------------------------------------------------|
B------------------------------------------------------------------------|
G--5---5--5-5-5-5--------------------------------------------------------|
D--5---5--5-5-5-5----5---5--5-5-5-5----3---3--3-3-3-3----5---5--5-5-5-5--|
A--3---3--3-3-3-3----5---5--5-5-5-5----3---3--3-3-3-3----5---5--5-5-5-5--|
E--------------------3---3--3-3-3-3----1---1--1-1-1-1----3---3--3-3-3-3--|
   C5                G5                F5
e------------------------------------------------------------------------|
B------------------------------------------------------------------------|
G--5---5--5-5-5-5--------------------------------------------------------|
D--5---5--5-5-5-5----5---5--5-5-5-5----3---3--3-3-3-3--3-3-3-3-3--3-3-3--|
A--3---3--3-3-3-3----5---5--5-5-5-5----3---3--3-3-3-3--3-3-3-3-3--3-3-3--|
E--------------------3---3--3-3-3-3----1---1--1-1-1-1--1-1-1-1-1--1-1-1--|

outro
   C5                G5                F5
e------------------------------------------------------------------------|
B------------------------------------------------------------------------|
G--5---5--5-5-5-5--------------------------------------------------------|
D--5---5--5-5-5-5----5---5--5-5-5-5----3---3--3-3-3-3--3-3-3-3-3--3-3-3--|
A--3---3--3-3-3-3----5---5--5-5-5-5----3---3--3-3-3-3--3-3-3-3-3--3-3-3--|
E--------------------3---3--3-3-3-3----1---1--1-1-1-1--1-1-1-1-1--1-1-1--|
   C5                G5                F5
e------------------------------------------------------------------------|
B------------------------------------------------------------------------|
G--5---5--5-5-5-5--------------------------------------------------------|
D--5---5--5-5-5-5----5---5--5-5-5-5----3---3--3-3-3-3--3-3-3-3-3--3-3-3--|
A--3---3--3-3-3-3----5---5--5-5-5-5----3---3--3-3-3-3--3-3-3-3-3--3-3-3--|
E--------------------3---3--3-3-3-3----1---1--1-1-1-1--1-1-1-1-1--1-1-1--|
   C5                G5                F5                G5
e------------------------------------------------------------------------|
B------------------------------------------------------------------------|
G--5---5--5-5-5-5--------------------------------------------------------|
D--5---5--5-5-5-5----5---5--5-5-5-5----3---3--3-3-3-3----5---5--5-5-5-5--|
A--3---3--3-3-3-3----5---5--5-5-5-5----3---3--3-3-3-3----5---5--5-5-5-5--|
E--------------------3---3--3-3-3-3----1---1--1-1-1-1----3---3--3-3-3-3--|
   C5                G5                F5
e------------------------------------------------------------------------|
B------------------------------------------------------------------------|
G--5---5--5-5-5-5--------------------------------------------------------|
D--5---5--5-5-5-5----5---5--5-5-5-5----3---3--3-3-3-3--3-3-3-3-3--3-3-3--|
A--3---3--3-3-3-3----5---5--5-5-5-5----3---3--3-3-3-3--3-3-3-3-3--3-3-3--|
E--------------------3---3--3-3-3-3----1---1--1-1-1-1--1-1-1-1-1--1-1-1--|
   C5                G5                F5                G5
e------------------------------------------------------------------------|
B------------------------------------------------------------------------|
G--5---5--5-5-5-5--------------------------------------------------------|
D--5---5--5-5-5-5----5---5--5-5-5-5----3---3--3-3-3-3----5---5--5-5-5-5--|
A--3---3--3-3-3-3----5---5--5-5-5-5----3---3--3-3-3-3----5---5--5-5-5-5--|
E--------------------3---3--3-3-3-3----1---1--1-1-1-1----3---3--3-3-3-3--|
   C5                G5                F5
e------------------------------------------------------------------------|
B------------------------------------------------------------------------|
G--5---5--5-5-5-5--------------------------------------------------------|
D--5---5--5-5-5-5----5---5--5-5-5-5----3---3--3-3-3-3--3-3-3-3-3--3-3-3--|
A--3---3--3-3-3-3----5---5--5-5-5-5----3---3--3-3-3-3--3-3-3-3-3--3-3-3--|
E--------------------3---3--3-3-3-3----1---1--1-1-1-1--1-1-1-1-1--1-1-1--|
   C5                G5                F5                G5
e------------------------------------------------------------------------|
B------------------------------------------------------------------------|
G--5---5--5-5-5-5--------------------------------------------------------|
D--5---5--5-5-5-5----5---5--5-5-5-5----3---3--3-3-3-3----5---5--5-5-5-5--|
A--3---3--3-3-3-3----5---5--5-5-5-5----3---3--3-3-3-3----5---5--5-5-5-5--|
E--------------------3---3--3-3-3-3----1---1--1-1-1-1----3---3--3-3-3-3--|
   C5                G5                F5
e------------------------------------------------------------------------|
B------------------------------------------------------------------------|
G--5---5--5-5-5-5--------------------------------------------------------|
D--5---5--5-5-5-5----5---5--5-5-5-5----3---3--3-3-3-3--3-3-3-3-3--3-3-3--|
A--3---3--3-3-3-3----5---5--5-5-5-5----3---3--3-3-3-3--3-3-3-3-3--3-3-3--|
E--------------------3---3--3-3-3-3----1---1--1-1-1-1--1-1-1-1-1--1-1-1--|
   C5                G5               F
e----------------------------------------1~------------------------------|
B---------------------------------------1~-------------------------------|
G--5---5--5-5-5-5----------------------2~--------------------------[2]---|
D--5---5--5-5-5-5----5----------------3~---------------------------[3]---|
A--3---3--3-3-3-3----5---------------------------------------------------|
E--------------------3---------------------------------------------------|

---------------------------------------------------
i'm not so sure about the solo... if you can correct it, or tab it out yourself,
that would be kick ass. have fun playin this song. rbf rocks.

            
            
Suggest correction
Creating personal tab
Creating personal tab
You can edit any tab online and save it as your Personal.

You can edit, replace or remove any tab part or add personal notes – all changes will be seen only by you.

Personal tabs can be accessed anytime from any device, even offline.
Learn more »
comments
print report bad tab
8 comments total. Showing first comments.
0 reply
actually_jesus 10 Jul 29, 2002 08:00 PM

in the intro there is a note on the high e string. the rest of the intro seems correct.

e--------0----------------0------------
b------1---------------1-----0----0----
g----------2--------0-----------2----etc
d---2--------2-------------------------
a-0--------------3---------------------


then the guitar 1 fill goes like this with a wah-wah x2

e-------------------------------------
b----9----9----9----9----5---5---7----7
g-77---77---55---55---33---33--55--55-
d-------------------------------------

while guitar 2 plays x2

g------5------------------------------
d-7----5x8-3----5---------------------
a-7x8--3---3x8--5x8-------------------
e-5--------1----3---------------------

after the second time let a 7 chord ring
7
5


in the chorus there is an E chord which was missed. all chords x8 chorus x2

g-5--------------5------------------
d-5(10)-5--2--3--5-5-3-3------------
a-3(10)-5--2--3--3-5-3-3------------
e--(8)--3--0--1----3-1-1------------

the E chord (022)must be inserted into all of the parts where a the chorusy part is played for example the backing to the solo which i will now attempt.

b131313131210888--------------------
g---------------7777797-------------
d----------------------101010-------

b13131312151888--555566668888888810

I think that's about it. The main structure of the song is pretty good there are just some wee probs that hopefully i've sorted out. Michael actually_jesus@hotmail.com

0 reply
Jinx 1,750 Aug 16, 2002 08:00 PM

to ^^ if you know so damn much why dont you tab it out yourself?!?

0 reply
TheOffspring77 200 Oct 06, 2002 08:00 PM

great tab, i think it could be shorter tho

guest
You may want to rate the tab now too:
select rating
Wanna post a correction for this tab? Suggest correction