Oops, an error
Loading. Please wait.

Wont Back Down bass

version 1
version 1

Whole song

4,238 views 6 this week
no commentswrite comment
1 2 3 4 5
x 5
add to favorites
×
Save as Personal and add changes to this tab that will be seen only by you. Learn more ›
×
You can save this tab as Personal to edit and correct it or add notes. All changes will be seen only by you. Learn more »
launch autoscroll
font size
0
reset
guitar tuner
edit
Autoscroll
slow
fast
+/-
esc
set tempo
stop
Author
-------------------------------------------------------------------------------
			     Won't Back Down - Reel Big Fish
-------------------------------------------------------------------------------

Tabbed By : raminile
e-mail: offspring248@hotmail.com

Great cover :D

/ = slide

Main riff
G|------------------4---2--1--|
D|----6------4---2----2-------|
A|-4----4-2----2--------------|
E|----------------------------|

Pre:
                      "Wont back..
G|-------------------------------|
D|----6------4---2-2-2-2-2-2-2-2-|
A|-4----4-2----2-----------------|
E|-------------------------------|

Chorus:
 ..down"
G|----------------------------|
D|--------2--2-2----4---4/6-4-|
A|-0--0-0--------2----2-------|
E|----------------------------|

Pretty straight forward song. Thought I'd post it cuz the main riff is so freakin awsome!

            
            
Suggest correction
Creating personal tab
Creating personal tab
You can edit any tab online and save it as your Personal.

You can edit, replace or remove any tab part or add personal notes – all changes will be seen only by you.

Personal tabs can be accessed anytime from any device, even offline.
Learn more »
comments
print report bad tab
guest
You may want to rate the tab now too:
select rating
Wanna post a correction for this tab? Suggest correction