Oops, an error
Loading. Please wait.

Por Primera Vez chords

by ReForma
13 views 1 this week
no commentswrite comment
1 2 3 4 5
3 more votes to show rating
add to favorites
×
Save as Personal and add changes to this tab that will be seen only by you. Learn more ›
×
You can save this tab as Personal to edit and correct it or add notes. All changes will be seen only by you. Learn more »
launch autoscroll
font size
0
reset
transpose
0
reset
simplify chords
display chords
guitar tuner
edit
Autoscroll
slow
fast
+/-
esc
set tempo
stop
Strumming
There is no strumming pattern for this song yet. and get +5 IQ
D5-A5-B5-G5
D5-A5-B5-G5
D5-A5-B5-G5
D5

La conoci en un dia de verano,
D5       A5    B5       G5
Eso fue hace muxos años.
D5               A5
Pero recuerdo,
B5
Su rostro infantil.
G5

Yo le pedi, que me regale una sonrisa
D5       A5        B5        G5
Una rapida Y deprisa,
D5              A5
Ella sonrio
B5
Y me dio un beso amor.
G5

Recuerdo todos esos tiempos,
D5               C#5
Esos buenos momentos
B5         G5
Cuando la inocencia nos unia
D5               C#5      B5
Y todo era un juego para mi
                G5

Estabamos en la playa
D5            C#5   B5
Y ella me decia huelo a gas
                A5     G5
Yo no la entendia
        D5         G5
Pero la escuchaba
        A5

Yo la miraba a los ojos
D5             C#5   B5
Para que sepa que la quiero
                A5      G5
Sin decilrle nada
D5                  G5
Sin decir te quiero amar
        A5


D5                 C#5             B5             G5
e|-------------------------------------------------------------------|
B|-------------------------------------------------------------------|
G|-----9-11----9-11-------9-------9-----------------12-11-9-12-11-9--| X2
D|--12------12------11-12---11-12---9-11-12-9-11-12------------------|
A|-------------------------------------------------------------------|
E|-------------------------------------------------------------------|


Solo me queda
D5       A5
Cada parte de mi odio
    B5           G5
Aceptar ella se ha ido
D5                A5
Y me ha dejado,para no volver jamas
        B5           G5

Facil ella ya lo olvidado
D5              C#5    B5
Solo se que yo no he vorrado
                  A5     G5
Todo lo que ha pasado
            D5
Es como una historia triste dificil para explicar
       G5                   A5

Que la queria demasiado
D5            C#5    B5
Tanto que un dia ella me lo dijo
                      A5     G5
El estar a su lado
         D5
Solo quiero ya poder cantarle esta triste cancion
      G5              A5

D5               C#5               B5            G5              D5
e|-------------------------------------------------------------------|
B|-------------------------------------------------------------------|
G|-----9-11----9-11-------9-------9-----------------12-11-9-12-11-9--| X2
D|--12------12------11-12---11-12---9-11-12-9-11-12------------------|
A|-------------------------------------------------------------------|
E|-------------------------------------------------------------------|

            
            
Suggest correction
Creating personal tab
Creating personal tab
You can edit any tab online and save it as your Personal.

You can edit, replace or remove any tab part or add personal notes – all changes will be seen only by you.

Personal tabs can be accessed anytime from any device, even offline.
Learn more »
Give kudos to tab author, rate the tab!
1 2 3 4 5
comments
print report bad tab
guest
Wanna post a correction for this tab? Suggest correction