Oops, an error
Loading. Please wait.

El Beso De La Muerte tab

61 views 1 this week
no commentswrite comment
1 2 3 4 5
3 more votes to show rating
add to favorites
×
Save as Personal and add changes to this tab that will be seen only by you. Learn more ›
×
You can save this tab as Personal to edit and correct it or add notes. All changes will be seen only by you. Learn more »
launch autoscroll
font size
0
reset
how to read this tab
guitar tuner
edit
Autoscroll
slow
fast
+/-
esc
set tempo
stop
Intro

e]----------------------------------------------------------
B]----------------------------------------------------------
G]----------------------------------------------------------
D]---7---5---7---5---7---7---5---7---5---7------------------
A]--7---7---7---7---7---7---7---7---7---7-------------------
E]-5---5---5---5---5---3---3---3---3---3--------------------

e]----------------------------------------------------------
B]----------------------------------------------------------
G]----------------------------------------------------------
D]---10---9---10---9----10----10----9----10-10-10-10-10-----
A]--9----9---9----9---10----10----10---10-------------------
E]-7----7---7----7---7-----8-----8----8---------------------


F Dm Am x2 Tab1

F
Paso firme llevo causa
Dm
la venganza tiene cara
Am
y se refleja en la mia

F
soy verdugo soy azote
Dm
mi venganza lleva nombre
Am
viene escrito en cada bala

F
llevo un cuerno recortado
Dm
una browning de respaldo
Am
una con super comando

REm
plaza fuerte no hace al hombre
Bm
ni qedar bien con patrones
Am
pisa fuerte mi venganza

                      F
despierta la furia en mi
Dm                Am
hoy no me importa morir
                      F
le subi un tiro al fusil
Dm               Am
arrodillate ante mi
F
es el beso de la muerte
Dm
saborealo del boquete
Am
de mi AK-47

Intermedio: F Dm Am x2 tab1

F
Tango al ritmo de mis balas
Dm
al compaz de mis descargas
Am
ultima coreografia

F
mi concierto de la muerte
Dm
orquestado por un R
Am
baila mi señora santa


F
traigo a dios y traigo al diablo
Dm
uno perdona mis actos
Am
y el otro avala al pecado

REm
fuera las caretas faltas
Bm
la sonrisa de me agranda
Am
besa el rostro de mi plomo

                      F
despierta la furia en mi
Dm                Am
hoy no me importa morir
                      F
le subi un tiro al fusil
Dm               Am
arrodillate ante mi
F
es el beso de la muerte
Dm
saborealo del boquete
Am
de mi AK-47

e]----------------------------------------------------------
B]----------------------------------------------------------
G]----------------------------------------------------------
D]---7---5---7---5---7---7---5---7---5---7------------------
A]--7---7---7---7---7---7---7---7---7---7-------------------
E]-5---5---5---5---5---3---3---3---3---3--------------------

e]----------------------------------------------------------
B]----------------------------------------------------------
G]----------------------------------------------------------
D]---10---9---10---9----10----10----9----10-----------------
A]--9----9---9----9---10----10----10---10-------------------
E]-7----7---7----7---7-----8-----8----8---------------------


Am
 Cuando Empezamos A
Temerle A la muerte
F
 Es Cuando Realmente
Comenzamos A
            Dm
Apreciar La Vida
Sere Como La Muerte
Am
Adbruta Y Certera
                 Dm
Seré Como Una Bala
Rapida Y Mortal
     Tab2
Seré Como una Granada
Que Espera
                  Tab3
El Momento Preciso
Para Explotar
Yo Soy Dueño
          Tab4
Del Tiempo
Yo Decido
Cuando Atacar


     Tab1    tab2     tab3       tab4

e]---------|-------|----------|-----------|
B]---------|-------|----------|-----------|
G]---------|-------|----------|-----------|
D]-7-5-----|-10x6--|--10x5-12-|---12x5-10-|
A]-----7-8-|-------|----------|-----------|
E]---------|-------|----------|-----------|

Acordes Originales

  F    Am    Bm   Dm
E-------5-----9----5---
A-8-----7-----10---5---
D-7-----7-----10---7---
G-10----5-----9----7---
B-x-----5-----9----6---
e-x-----5-----9----5---


Bueno Eso Es Todo Lo Que He Sacado
Esta Es La Version En ESTUDIO, Aconsejo
Un Capo En EL Tercer Traste Para Que Sea Mas
Sencillo El Intro Del Bajosexto,
Dudas, ó Peticiones A Mi Correo
caarlos619@ ó
emanuuel95@

            
            
Suggest correction
Creating personal tab
Creating personal tab
You can edit any tab online and save it as your Personal.

You can edit, replace or remove any tab part or add personal notes – all changes will be seen only by you.

Personal tabs can be accessed anytime from any device, even offline.
Learn more »
Give kudos to tab author, rate the tab!
1 2 3 4 5
comments
print report bad tab
guest
Wanna post a correction for this tab? Suggest correction