Oops, an error
Loading. Please wait.

Ay Dolores! tab

version 1
version 1

Whole song

341 views 3 this week
no commentswrite comment
1 2 3 4 5
3 more votes to show rating
add to favorites
×
Save as Personal and add changes to this tab that will be seen only by you. Learn more ›
×
You can save this tab as Personal to edit and correct it or add notes. All changes will be seen only by you. Learn more »
launch autoscroll
font size
0
reset
how to read this tab
guitar tuner
edit
Autoscroll
slow
fast
+/-
esc
set tempo
stop
ola soi el guitarrista d un grupo k se llama RESISTENCIA y komo
e visto k todas las transkripciones k an puesto de esta kancion
stan mal e decidido acer yo una, sta kasi perfecta venga k os
guste y un saludo para los d resistencia¡¡¡¡¡¡¡¡¡¡¡¡¡

se toka toda kn kintas


ste punteo se ace muteando no pongo el numero exacto d veces k se
ace en cada traste pero ya lo sakareis kuando la scuxeis


e------------------------------------------------------
b------------------------------------------------------
g--10----10---10---10---10---10---9---9---9---9---9----
d-----12---12---12---12---12---12---10--10--10---10--10
a------------------------------------------------------
e------------------------------------------------------


e------------------------------------------------------------
b------------------------------------------------------------
g--10-----10-----14------14-----14----12---12----11---11---11
d-----12-----12------16-----16-----14---14---13----13---13---
a------------------------------------------------------------
e------------------------------------------------------------

y esto se toka durante el primer parrafo y mientras la
segunda guitarra ace los acordes k e puesto en el primer
parrafo

nota: MI6 es G--9--------
             d--9--------
             a--7--------


Las diez menos cuarto en el reloj
                                FA5
La noche abre su puerta en tu cabeza

en la tele un culebrón

La comida en el salón
                MI6                         SOL5
esperando una sonrisa, un te quiero, una caricia

RE5                          LA5
Las llaves tornan gris tu habitación
 LA#5                         FA5
entrando con el odio tras sus ojos
 SOL5                       RE5
Ya no tienen su calor, el alcohol es su sabor
  MI6                           SOL5
empezando con reproches, los insultos el, desprecio

RE5                        LA5
Y ahora no tienes nada que decir
 LA#5                             FA5
Ya no se si soy mujer o soy una mierda
 SOL5                       RE5
su vida anda sin razón, despojada del dolor
 MI6                       SOL5
Victima de su miedo, del fracaso, de sus celos

SOL5   RE5
Ay    Dolores
 DO5
Las manos en tu espalda,
LA5
La tortura en tu mente.

SOL5   RE5
Ay    Dolores
DO5                    LA5
Con el silencio de la sociedad.


weno y lo demas es iwal kon la misma estructura
weno para alguna keja, algos o korrecciones miguel_nvl@
weno spero k os aya gustado dew

            
            
Suggest correction
Creating personal tab
Creating personal tab
You can edit any tab online and save it as your Personal.

You can edit, replace or remove any tab part or add personal notes – all changes will be seen only by you.

Personal tabs can be accessed anytime from any device, even offline.
Learn more »
Give kudos to tab author, rate the tab!
1 2 3 4 5
comments
print report bad tab
guest
Wanna post a correction for this tab? Suggest correction