Oops, an error
Loading. Please wait.

Camela 3 tab

version 2
version 2

Whole song

23 views 1 this week
no commentswrite comment
1 2 3 4 5
3 more votes to show rating
add to favorites
×
Save as Personal and add changes to this tab that will be seen only by you. Learn more ›
×
You can save this tab as Personal to edit and correct it or add notes. All changes will be seen only by you. Learn more »
launch autoscroll
font size
0
reset
how to read this tab
guitar tuner
edit
Autoscroll
slow
fast
+/-
esc
set tempo
stop
INTRO
  B5*
|---------------------------------------------|
|---------------------------------------------|
|---------------------------------------------|
|-9-9-9-9-----9-9-9-9-----9-----9-----9-9-9-9-|
|-9-9-9-9-----9-9-9-9-----9-----9-----9-9-9-9-|
|-7-7-7-7-----7-7-7-7-----7-----7-----7-7-7-7-|

   E5                                                   C#5  B5  A5    
|----------------------------------------------------------------------|
|----------------------------------------------------------------------|
|------------------------------9-9--------------9-9-9-9-9-9-6-6--4--2-2|
|------------------------------9-9--------------9-9-9-9-9-9-6-6--4--2-2|
|-(7-7-7-7-7-7-7-7-7-7-7-7-7-7)---(7-7-7-7-7-7)-7-7-7-7-7-7-4-4--2--0-0|
|----------------------------------------------------------------------|
Pongo la radio el televisor    día a día las noticias de la sociedad

 C#5  B5   A5
|-------------|
|-------------|
|-6----4----9-|
|-6----4----9-|
|-4----2----7-|
|-------------|
  la suciedad

   E5                                                   C#5  B5  A5    
|----------------------------------------------------------------------|
|----------------------------------------------------------------------|
|------------------------------9-9--------------9-9-9-9-9-9-6-6--4--2-2|
|------------------------------9-9--------------9-9-9-9-9-9-6-6--4--2-2|
|-(7-7-7-7-7-7-7-7-7-7-7-7-7-7)---(7-7-7-7-7-7)-7-7-7-7-7-7-4-4--2--0-0|
|----------------------------------------------------------------------|
Come el coco muy poquito a poco parece una telenovela la información

 C#5  B5   A5
|-------------|
|-------------|
|-6----4----9-|
|-6----4----9-|
|-4----2----7-|
|-------------|
Desinformación

Y así también para las demas estrofas 

Estribillo:
   A5  B5*  E5
|--------------------------|
|--------------------------|
|-----------9--9-9-9-9-9-9-|
|-7-7--9-9--9--9-9-9-9-9-9-|
|-7-7--9-9--7--7-7-7-7-7-7-|
|-5-5--7-7-----------------|
 camela 3, la información mas veraz

   A5  B5*   E5
|---------------------------|
|---------------------------|
|------------9--9-9-9-9-9-9-|
|-7-7--9-9---9--9-9-9-9-9-9-|
|-7-7--9-9---7--7-7-7-7-7-7-|
|-5-5--7-7------------------|
 camela 3, verás qué bien te miento yo
 
   A5  B5*   E5                G#5  A5  B5*
|---------------------------|-|------------|
|---------------------------|-|------------|  
|------------9--9-9-9-9-9-9-|-|------------|
|-7-7--9-9---9--9-9-9-9-9-9-|-|-6.--7.--9.-|
|-7-7--9-9---7--7-7-7-7-7-7-|-|-6.--7.--9.-|
|-5-5--7-7------------------|-|-4.--5.--7.-|
camela 3, verás qué bien te timo yo

(en la parte final del estribillo donde están las notas G#5, A5, B5 cada
 una se toca 8 beses a execcion de B5 que se toca 16 beses)
|-------------------------------------------------------|
|-----------------------------------------------------4-|
|------------------------------------7-5-4----7-5-4-7---|
|-7--9-9--7-9-10-9-7-7--9-9--10-9-7--------7------------|
|-------------------------------------------------------|
|-------------------------------------------------------|
(E5, A5, B5 estas notas son las que acompañan el punteo)

  E5
|-----------|
|-----------|
|-9-9-9-9---|
|-9-9-9-9---|
|-7-7-7-7---|
|-----------|
          Ya les vale al personal

 B5
|-----------|
|-----------|
|-----------|
|-9-9-9-9---|
|-9-9-9-9---|
|-7-7-7-7---|
          Distorsionando la verdad

  C#5                    D5
|-----------|         |---------------------------------------|
|-----------|         |---------------------------------------|
|-6-6-6-6---|         |-(7-7)-7-(7-7-7)-7-(7-7-7)-7-(7-7-7)-7-|
|-6-6-6-6---|         |-(7-7)-7-(7-7-7)-7-(7-7-7)-7-(7-7-7)-7-|
|-4-4-4-4---|         |-(5-5)-5-(5-5-5)-5-(5-5-5)-5-(5-5-5)-5-|
|-----------|         |---------------------------------------|
          La mentira es  su     moralidad

E5
   Yo no sé de qué os quejáis
B5
   Tenéis celos del poder
C#5                      D5
   Y os está corroyendo vuestra envidia

   E5
|---------------------------------------|
|---------------------------------------|
|-(9-9)-9-(9-9-9)-9-(9-9-9)-9-(9-9-9)-9-|
|-(9-9)-9-(9-9-9)-9-(9-9-9)-9-(9-9-9)-9-|
|-(7-7)-7-(7-7-7)-7-(7-7-7)-7-(7-7-7)-7-|
|---------------------------------------|
            Ya   os   quitaron   vuestra   idea
  
   B5
|---------------------------------------|
|---------------------------------------|
|---------------------------------------|
|-(9-9)-9-(9-9-9)-9-(9-9-9)-9-(9-9-9)-9-|
|-(9-9)-9-(9-9-9)-9-(9-9-9)-9-(9-9-9)-9-|
|-(7-7)-7-(7-7-7)-7-(7-7-7)-7-(7-7-7)-7-|
            No   tenéis   nada   que   ofrecer 

  C#5                    
|---------------------------------------|   
|---------------------------------------|  
|-(6-6)-6-(6-6-6)-6-(6-6-6)-6-(6-6-6)-6-|
|-(6-6)-6-(6-6-6)-6-(6-6-6)-6-(6-6-6)-6-|
|-(4-4)-4-(4-4-4)-4-(4-4-4)-4-(4-4-4)-4-|
|---------------------------------------|   
            Y   es   que   la   mierda   está

D5
|---------------------------------------|
|---------------------------------------| 
|-(7-7)-7-(7-7-7)-7-(7-7-7)-7-(7-7-7)-7-|
|-(7-7)-7-(7-7-7)-7-(7-7-7)-7-(7-7-7)-7-|
|-(5-5)-5-(5-5-5)-5-(5-5-5)-5-(5-5-5)-5-|
|---------------------------------------|
     ya          inventada.

La segunda ves que se repiten estas ultimas estrofas no estoy muy seguro
 de cómo se toca así que esta parte no la pongo pero si deseas saber de
 que forma la toco pues mándame un meil a bucan8@ y te
 lomando    


Cuando las notas aparecen entre paréntesis se tocan con palm meted
 también cuando aparece un punto después de una nota es parque esta se
 toca varias veces

            
            
Suggest correction
Creating personal tab
Creating personal tab
You can edit any tab online and save it as your Personal.

You can edit, replace or remove any tab part or add personal notes – all changes will be seen only by you.

Personal tabs can be accessed anytime from any device, even offline.
Learn more »
Give kudos to tab author, rate the tab!
1 2 3 4 5
comments
print report bad tab
guest
Wanna post a correction for this tab? Suggest correction