Oops, an error
Loading. Please wait.

Grana Y Oro tab

version 1
version 1

Whole song

103 views 1 this week
no commentswrite comment
1 2 3 4 5
3 more votes to show rating
add to favorites
×
Save as Personal and add changes to this tab that will be seen only by you. Learn more ›
×
You can save this tab as Personal to edit and correct it or add notes. All changes will be seen only by you. Learn more »
launch autoscroll
font size
0
reset
how to read this tab
guitar tuner
edit
Autoscroll
slow
fast
+/-
esc
set tempo
stop
+ Tabulados de made in spain!                   +
+ [                        +
+++++++++++++++++++++++++++++++++++++++++++++++++

*1 Esto es lo que va al principio cuando empieza el bajo (que es al
   unisono que la guitarra, con las mismas notas que en la guitarra,
   pero se toca con la primera nota de cada acorde) y tambien va en
   los cambios despues del estribillo y antes que empiece a cantar
   lo siguiente.
  
*1 DO 5º     RE# 5º   SOL 5º    LA# 5º 
E :------------------|------------------|
B :------------------|------------------|
G :5---5-----8---8---|------------------|
D :5---5-----8---8---|5---5-----8---8---| x2 veces
A :3---3-----6---6---|5---5-----8---8---|
E :------------------|3---3-----6---6---|

*2 Esto es lo que se toca cuando canta lo de "Rojo, sangre un color
   muy nacional..."

*2 SOL# 5º          DO 5º            SOL 5º          LA# 5º
E :----------------|----------------|---------------|----------------|
B :----------------|----------------|---------------|----------------|
G :----------------|5-5-5-5-5-5-5-5-|---------------|3-3-3-3-3-3-3-3-|
D :6-6-6-6-6-6-6-6-|5-5-5-5-5-5-5-5-|5-5-5-5-5-5-5-5|3-3-3-3-3-3-3-3-| x4 veces
A :6-6-6-6-6-6-6-6-|3-3-3-3-3-3-3-3-|5-5-5-5-5-5-5-5|1-1-1-1-1-1-1-1-|
E :4-4-4-4-4-4-4-4-|----------------|3-3-3-3-3-3-3-3|----------------|
   Rojo,            Sangre,          un color        muy nacional

*3 Esto es del estribillo: "Cuando el acero me traspasa el corazon, y
   se le llama fiesta..."

*3 RE# 5º  LA# 5º     DO 5º   SOL 5º     SOL# 5º RE# 5º
E :------------------|------------------|------------------|
B :------------------|------------------|------------------|
G :8-8-8-8-----------|5-5-5-5-----------|--------8-8-8-8-8-|
D :8-8-8-8-8-8-8-8-8-|5-5-5-5-5-5-5-5-5-|6-6-6-6-8-8-8-8-8-|
A :6-6-6-6-8-8-8-8-8-|3-3-3-3-5-5-5-5-5-|6-6-6-6-6-6-6-6-6-|
E :--------6-6-6-6-6-|--------3-3-3-3-3-|4-4-4-4-----------|
   Cuando el acero me traspasa el corazon, y se le llama fiesta
   
   FA 5º       SOL# 5º
E :---------------------------|
B :---------------------------|
G :10-10-10-10-13-13-13-13-13-|
D :10-10-10-10-13-13-13-13-13-|
A :-8--8--8--8-11-11-11-11-11-|
E :---------------------------|
   y otra vuelta de tuerca

Ahora pongo la letra y como van los riffs...

Riff *1
Riff *2
Rojo, Sangre, un color muy nacional
Morbo, suerte, sol y arena vive Dios
Arte, muerte, sirve de alimento
pase valiente y vuelta al ruedo
Riff *3
Cuando el acero me traspasa el corazón
y se le llama fiesta y otra vuelta de tuerca
Cuando el sadismo se convierte en tradición
y la faena encesta y nadie se molesta
Riff *1
Riff *2
Pinchos, siente, recital multicolor
Pasodoble, ambiente, de nobleza y de pasión
La oreja, presidente, los pañuelos al viento
Alza la frente y mira al cielo
Riff*3
Cuando el acero me traspasa el corazón
y se le llama fiesta y otra vuelta de tuerca
Cuando el sadismo se convierte en tradición
y la faena encesta y nadie se molesta
SOLO
Cuando el acero me traspasa el corazón
y se le llama fiesta y otra vuelta de tuerca
Cuando el sadismo se convierte en tradición
y la faena encesta y nadie se molesta
Riff *1 
Nadie (la fiesta), nadie (la fiesta)...

            
            
Suggest correction
Creating personal tab
Creating personal tab
You can edit any tab online and save it as your Personal.

You can edit, replace or remove any tab part or add personal notes – all changes will be seen only by you.

Personal tabs can be accessed anytime from any device, even offline.
Learn more »
Give kudos to tab author, rate the tab!
1 2 3 4 5
comments
print report bad tab
guest
Wanna post a correction for this tab? Suggest correction