Oops, an error
Loading. Please wait.

No Somos Nada tab

55 views 1 this week
no commentswrite comment
1 2 3 4 5
3 more votes to show rating
add to favorites
×
Save as Personal and add changes to this tab that will be seen only by you. Learn more ›
×
You can save this tab as Personal to edit and correct it or add notes. All changes will be seen only by you. Learn more »
launch autoscroll
font size
0
reset
how to read this tab
guitar tuner
edit
Autoscroll
slow
fast
+/-
esc
set tempo
stop
23/4/2000
@Tab by warrior
Dedikao al Piru

                              

                              REINCIDENTES: No Somos nada
                                        ----------------------------
Esta kanzion se sale para tokarla en mitad de un konziertillo a toda  te desahogas kantandola y haciendo
los  muy muy facil y el solillo tambien te lo pongo porke es senzillo  pongo el solo para bajo
ke se oye a la vez ke el de guitarra(Thanks to Cerrillo por sakarlo):

Intro: (con akordes  no te los sabes los pongo abajo)
---------------------------------------------------------------------

C  Am  F  G5   (x2 veces)


C5x   G5x   D5x  G5x (x2 veces)
  
Estrofas:
---------

C5
No keremos patria
G5
No keremos al rey
D5
No keremos fachas 
G5
ni kapullos de papel
C5
No keremos mili
G5
no keremos objecion
D5
no keremos al papa
G5
ni a la madre ke lo pario

Estribillo:
----------

F
No somos nada
G
¡No somos nada!
F
No somos nada
G
¡Y nunka nos vamos a rendir! 


Solo de guitarra:
-----------------
  
   C5                    G5                      D5                        G5
E|------------------------------------------------------------------------------|
B|-------------------------------------------------------------------------12---|
G|-12--9----12--9----12------------12-------12---14--11-----14--11----14---12---|
D|-------10-------10--------9---12----12-12--------------12--------12-----------|
A|-----------------------10-----------------------------------------------------|
E|------------------------------------------------------------------------------|  x2 veces

Solo de bajo:
-------------

   C5        G5       D5      G5
G|-----------------------------------|
D|----2-5-2-------------4-7-4-5-5-5--|
A|--3-----------2-3-4-5--------------|
E|-----------3-----------------------|   x2 veces

                  
Los akordes del intro:
----------------------
Para los ke no konozkan los akordes tradicionales aki los eskribo:

     C

E|--3-----|
B|--5-----|
G|--5-----|
D|--5-----|
A|--3-----|
E|--3-----| 

    Am

E|--------|
B|--1-----|
G|--2-----|
D|--2-----|
A|--------|
E|--------| 
 
    F

E|--1-----|
B|--1-----|
G|--2-----|
D|--3-----|
A|--3-----|
E|--1-----| 

No hay nada mas, es muy facil pero puede kedar muy bien.

Si no te aklaras kon algo,tienes dudas,sugerencias,krees ke esta mal                             
o simplemente te apeteze enviar un e-mail aki estoy
                                    
                                    <warrior_g@
                  
                  o visita la sekzion de musika de mi peich
                                       
                                    <
                  ¡Hasta otra!
                                                            Warrior_

            
            
Suggest correction
Creating personal tab
Creating personal tab
You can edit any tab online and save it as your Personal.

You can edit, replace or remove any tab part or add personal notes – all changes will be seen only by you.

Personal tabs can be accessed anytime from any device, even offline.
Learn more »
Give kudos to tab author, rate the tab!
1 2 3 4 5
comments
print report bad tab
guest
Wanna post a correction for this tab? Suggest correction