Oops, an error
Loading. Please wait.

Tu Deliras chords

21 views 1 this week
no commentswrite comment
1 2 3 4 5
3 more votes to show rating
add to favorites
×
Save as Personal and add changes to this tab that will be seen only by you. Learn more ›
×
You can save this tab as Personal to edit and correct it or add notes. All changes will be seen only by you. Learn more »
launch autoscroll
font size
0
reset
transpose
0
reset
display chords
guitar tuner
edit
Autoscroll
slow
fast
+/-
esc
set tempo
stop
Strumming
There is no strumming pattern for this song yet. and get +5 IQ
@Tab by Page Piru

GRUPO:REINCIDENTES
ALBUM:NI UN PASO ATRAS
CANCION:TU DELIRAS


Intro:(2 veces)
          G     D       A    C
E|----------------------------------------------|
B|--0---0-------3-1-0-1-----1-------------------|
G|----2---0---0---------2-2---------------------|
D|----------------------------------------------|
A|----------------------------------------------|
E|----------------------------------------------|


Estrofas:
G          D                A                 C
Tu deliras,si lo consientes con quien no sientes
Tu deliras,si no soportas todas las tortas
Tu deliras,dando razones con tus acciones
Tu delias,David con la onda nosotros la zambomba zam-bomba,zam-bomba

Estribillo:
G            D              A               C
Si no temes a la oscuridad sabes que hacer,vencer o morir
En las trincheras de la clandestinidad tienes una razon,mucha razon

Solillo:(2 veces)
E|-----------------------------------------------|
B|-----------------------------------------------|
G|-----------------------------------------------|
D|----5-7-5-2-2-2-0-2-3-2---3-0-3-2--------------|
A|----------------------------------3-0-5--------|
E|----------------------------------------3------|

Estrofas:
G          D                A                 C
Tu deliras,si lo consientes con quien no sientes
Tu deliras,Tramando cosas muy peligrosas
Tu deliras,Golpeando en seri contra el imperio
Tu deliras,cuando descargas toda tu ira ira mucha ira 

Estribillo:
G            D              A               C
Si no temes a la oscuridad sabes que hacer,vencer o morir
En las trincheras de la clandestinidad tienes una razon,mucha razon

Solillo:(2 veces)
E|-----------------------------------------------|
B|-----------------------------------------------|
G|-----------------------------------------------|
D|----5-7-5-2-2-2-0-2-3-2---3-0-3-2--------------|
A|----------------------------------3-0-5--------|
E|----------------------------------------3------|


B

            
            
Suggest correction
Creating personal tab
Creating personal tab
You can edit any tab online and save it as your Personal.

You can edit, replace or remove any tab part or add personal notes – all changes will be seen only by you.

Personal tabs can be accessed anytime from any device, even offline.
Learn more »
Give kudos to tab author, rate the tab!
1 2 3 4 5
comments
print report bad tab
guest
Wanna post a correction for this tab? Suggest correction