Oops, an error
Loading. Please wait.

Boomerang tab

1,666 views 3 this week
no commentswrite comment
1 2 3 4 5
x 4
add to favorites
×
Save as Personal and add changes to this tab that will be seen only by you. Learn more ›
×
You can save this tab as Personal to edit and correct it or add notes. All changes will be seen only by you. Learn more »
launch autoscroll
font size
0
reset
how to read this tab
guitar tuner
edit
Autoscroll
slow
fast
+/-
esc
set tempo
stop
Hey, everyone (again.)! This is an awesome song. It's so fun to play. Check out online 
Bob Bartoli from the shop Music-Go-Round in PA and my OPERATION by RELIENT K tab. This is 
100% right, btw.

Boomerang-Relient K (Collapsible Lung)
Legend:
~-let it ring
*-dead note, but used for strum pattern as well

Intro
e|-------|-------|------------|
b|---4~--|-------|------------|
g|-------|-DRUM--|-7-7--9-7-5-|
D|-------|-INTRO-|-7-7--9-7-5-|
A|-------|-------|-5-5--7-5-3-|
E|-------|-------|------------|

Verse 1/ Verse 2
e|------------------------|------------------------|
b|------------------------|------------------------|
g|-2--*--5-2--*---------2-|--*--5-2--*--7-7--9-7-5-|
D|-2-----5-2-----5-2-5--2-|-----5-2-----7-7--9-7-5-|
A|-0-----3-0-----5-2-5--0-|-----3-0-----5-5--7-5-3-|
E|---------------3-0-3----|------------------------|

e|------------------------------------|
b|------------------------------------|
g|-2--*--5-2--*-----------*--5-2-REST-|
D|-2-----5-2-----5-2-5-2-----5-2------|
A|-0-----3-0-----5-2-5-2-----3-0------|
E|---------------3-0-3-0--------------|

Chorus
e|-------------------------------------|--------|
b|-------------------------------------|-REPEAT-|
g|-2-22-222-5-55-555-7-77-777-5-55-555-|-THREE--|
D|-2-22-222-5-55-555-7-77-777-5-55-555-|-MORE---|
A|-0-00-000-3-33-333-5-55-555-3-33-333-|-TIMES--|
E|-------------------------------------|--------|

Interlude

e|------------------------|------------------------|
b|------------------------|------------------------|
g|-2--*--5-2--*---------2-|--*--5-2--*--7-7--9-7-5-|
D|-2-----5-2-----5-2-5--2-|-----5-2-----7-7--9-7-5-|
A|-0-----3-0-----5-2-5--0-|-----3-0-----5-5--7-5-3-|
E|---------------3-0-3----|------------------------|

Interlude 2
e|---------------|----------------------|
b|---------------|----------------------|
g|-2--*--5-2--*--|-7-7--9-7-5-2--*--5-2-|
D|-2-----5-2-----|-7-7--9-7-5-2-----5-2-|
A|-0-----3-0-----|-5-5--7-5-3-0-----3-0-|
E|---------------|----------------------|

e|-----------------------------------------|
b|-----------------------------------------|
g|--------2~---5~-------------2~---5~------|
D|-5-2-5--2~---5~---5~---4~---2~---5~---5~-|
A|-5-2-5--0~---3~---5~---4~---0~---3~---5~-|
E|-3-0-3------------3~---2~-------------3~-|

Order:
Intro
Verse 1
Chorus
Interlude 1
Verse 2
Chorus
Interlude 2
Chorus

            
            
Suggest correction
Creating personal tab
Creating personal tab
You can edit any tab online and save it as your Personal.

You can edit, replace or remove any tab part or add personal notes – all changes will be seen only by you.

Personal tabs can be accessed anytime from any device, even offline.
Learn more »
comments
print report bad tab
guest
You may want to rate the tab now too:
select rating
Wanna post a correction for this tab? Suggest correction