Oops, an error
Loading. Please wait.

Let It All Out tab

2,849 views 1 this week
no commentswrite comment
1 2 3 4 5
2 more votes to show rating
add to favorites
×
Save as Personal and add changes to this tab that will be seen only by you. Learn more ›
×
You can save this tab as Personal to edit and correct it or add notes. All changes will be seen only by you. Learn more »
launch autoscroll
font size
0
reset
how to read this tab
guitar tuner
edit
Autoscroll
slow
fast
+/-
esc
set tempo
stop
Relient K
"Let it All Out"
MMHMM
2004

Tuned half-step down.

*Piano chord chart (tabbed for guitar) *- Base note played an octave lower.
 C(1) Em7 Fadd9 C(2) Am7   G   Em  
|-x-||-0-||-3-||-3-||-3-||-3-||-3-|
|-1-||-3-||-1-||-1-||-1-||-0-||-0-|
|-0-||-0-||-2-||-0-||-2-||-0-||-0-|
|-2-||-2-||-3-||-2-||-2-||-0-||-2-|
|-3-||-x-||-x-||-3-||-0-||-2-||-2-|
|-x-||-x-||-1-||-x-||-x-||-3-||-0-|

Verse 1:
 C(1)                
Let it all out. (Get it all out.)
       Em7
Rip it out, remove it.
      Fadd9                             C(2)
Don't be alarmed when the wound begins to bleed.
                 C(1)          C(2)
'Cause we're so scared to find out. (What this life's all about.)
     Em7
So scared we're gonna lose it,
    Fadd9                             C(2)
But knowing all along that's exactly what we need.

Pre-Chorus: 
     Fadd9          				__
And today I'll trust you with the confidence 	  |
     Am7                  G			  |
Of a man who's never known defeat.                | The chords in this section I'll 
       Em                     Fadd9               |call Rhythm Figure 1
But tomorrow, upon hearing what I did,          __|
        Am7              G
I will stare at you in disbelief.
    Fadd9       Am7   G
Oh, inconsistent me,
Em      Fadd9      G
Crying out for consistency.

This is the second piano in the Pre-Chorus
Piano arranged for Guitar
Eb|-----------12---17---|-15---12-------------|-------------------|--------------------|
Bb|-10---13----x----x---|--x----x---12---13---|----------10-------|--------------------|
Gb|-x-----x----9---14---|-12----9----x----x---|-12---9----x---9---|-12---9-------------|
Db|--7---10-------------|------------9---10---|--x---x----7---x---|--x---x---9---10----|
Ab|---------------------|---------------------|-10---7--------7---|-10---7---x----x----|
Eb|---------------------|---------------------|-------------------|----------7----8----|
    A     C    E    A      G    E    B    C     G    E    C   E      G   E   B    C
I'll call these next four measures "Riff A"
Eb|-----------12---17---|-15---12-------------|-------------------|--------------------|
Bb|-10---13----x----x---|--x----x---12---13---|----------10-------|--------------------|
Gb|--x----x----9---14---|-12----9----x----x---|-12---9----x---9---|-7------------------|
Db|--7---10-------------|------------9---10---|--x---x----7---x---|-x------------------|
Ab|---------------------|---------------------|-10---7--------7---|-5------------------|
Eb|---------------------|---------------------|-------------------|--------------------| 
     A    C    E    A      G    E    B    C      G   E    C   E     D
Chorus:
And you said  I know that this will hurt,
Eb|-3-----3-----|-3-----3-----|-3-----3-----|-3-----3-----|
Bb|---1-----1---|---1-----0---|---1-----1---|---1-----1---|
Gb|-----0-----0-|-----0-----0-|-----2-----2-|-----2-----2-|---- Call this "Riff B"
Db|-------------|-------------|-------------|-------------|
Ab|-3-----------|-0-----------|-------------|-------------|
Eb|-------3-----|-------0-----|-1-----------|-------------|

(Play Riff B two more times)
 C    Gsus4     Am7           Em  ---- Implied harmony from piano until
But if I don't break your heart					    |
     Fadd9                                                          |
Then things will get much worse.        here                        |
C     Gsus4    Am7    Em        Fadd9 -------------------------------
If the burden seems too much to bear,
       Am7              G           Em     Fadd9    G      C   ---- Consult with the piano 
Remember, the end will justify the pain it took to get us there.               chord chart.

Verse 2: Same chords as the first verse.

And I'll let it be known. (Times I have shown.)
Signs of all my weakness.  
But somewhere in me there is strength.
And you promise me (That you believe.)
In time I will defeat this, 
'Cause somehwere in me there is strength.

Pre-Chorus 2: (One piano with Rhythm Figure 1 and another piano with Riff A)

And today I'll trust you with the confidence
Of a man who's never known defeat.
And I'll try my best to just forget
      G (Piano playing Rhythm Figure 1)
That that man isn't me.

Chorus: (Play Riff B an octave higher 3 times)

And you said I know that this will hurt,
But if I don't break your heart,
Then things will just get worse.
If the burden seems too much to bear,
        Am7             G           Em     Fadd9    G
Remember, the end will justify the pain it took to get us 

(Riff B 3 times)
(there..........................I know this will hurt...)
You said I know that this will hurt,
(..............................)
But if I don't break your heart
(....Things    will      get   untrue...)
Then things will just get worse.
(...............................Seems  too much to, oh...)
When the burden seems too much to bear,
(.................................)
Remember, the end will justify the pain it took to get us there.



I'm not going to bother with the outro.

            
            
Suggest correction
Creating personal tab
Creating personal tab
You can edit any tab online and save it as your Personal.

You can edit, replace or remove any tab part or add personal notes – all changes will be seen only by you.

Personal tabs can be accessed anytime from any device, even offline.
Learn more »
Give kudos to tab author, rate the tab!
1 2 3 4 5
comments
print report bad tab
guest
You may want to rate the tab now too:
select rating
Wanna post a correction for this tab? Suggest correction