Oops, an error
Loading. Please wait.

Must Have Done Something Right bass

version 1
version 1

Whole song

Interactive

14,808 views 3 this week
8 commentsread comments
1 2 3 4 5
x 23
add to favorites
×
Save as Personal and add changes to this tab that will be seen only by you. Learn more ›
×
You can save this tab as Personal to edit and correct it or add notes. All changes will be seen only by you. Learn more »
launch autoscroll
font size
0
reset
guitar tuner
edit
Autoscroll
slow
fast
+/-
esc
set tempo
stop
Verse
G ----------------|----------------|--------------------------------|
D ----------------|-----3-6-----3-6|--------------------------------|
A -----1-4-----1-4|-4-4-----4-4----|-----3-6-----3-6-----3-6-----3-6|
E -2-2-----2-2----|----------------|-4-4-----4-4-----4-4-----4-4----|

G ----------------|----------------|-----------------------------5--|
D ----------------|-----3-6-----3-6|-------------------------6-3---6|
A -----1-4-----1-4|-4-4-----4-4----|-----3-6-----3-6-----6-3--------|
E -2-2-----2-2----|----------------|-4-4-----4-4-----4-4------------|


Pre Chorus
G -----------------------|----------------------------------|
D -----------------------|----------------------------------| 
A -4-4-444-4-44-444-4-4--|------------------4-4-444---------|
E ----------------------4|-6-6-666-6-66-666---------4-4-4444|


Chorus
G --------------------------------|--------------------------------|
D --------------------------------|--------------------------------|
A -4-4-----4-4-----2-2-----2-2----|-4-4-----4-4-----2-2-----2-2----|
E -----4-4-----4-4-----2-2-----2-2|-----4-4-----4-4-----2-2-----2-2|


Verse
G ----------------|----------------|--------------------------------|
D ----------------|-----3-6-----3-6|--------------------------------|
A -----1-4-----1-4|-4-4-----4-4----|-----3-6-----3-6-----3-6-----3-6|
E -2-2-----2-2----|----------------|-4-4-----4-4-----4-4-----4-4----|
                                                                      2X
G ----------------|----------------|-----------------------------5--|
D ----------------|-----3-6-----3-6|-------------------------6-3---6|
A -----1-4-----1-4|-4-4-----4-4----|-----3-6-----3-6-----6-3--------|
E -2-2-----2-2----|----------------|-4-4-----4-4-----4-4------------|


Pre Chorus
G -----------------------|----------------------------------|
D -----------------------|----------------------------------| 
A -4-4-444-4-44-444-4-4--|------------------4-4-444---------|
E ----------------------4|-6-6-666-6-66-666---------4-4-4444|


Chorus
G --------------------------------|--------------------------------|
D --------------------------------|--------------------------------|
A -4-4-----4-4-----2-2-----2-2----|-4-4-----4-4-----2-2-----2-2----|
E -----4-4-----4-4-----2-2-----2-2|-----4-4-----4-4-----2-2-----2-2|


Bridge
G --------------------|-------------------------|
D --------------------|-------------------------|
A -4-4-4-----2-2-2----|-0-0-0-----2-2-2-2-22-2-2|
E -------4-4-------2-2|-------0-0---------------|


Chorus
G --------------------------------|--------------------------------|
D --------------------------------|--------------------------------|
A -4-4-----4-4-----2-2-----2-2----|-4-4-----4-4-----2-2-----2-2----| 4X
E -----4-4-----4-4-----2-2-----2-2|-----4-4-----4-4-----2-2-----2-2|

            
            
Suggest correction
Creating personal tab
Creating personal tab
You can edit any tab online and save it as your Personal.

You can edit, replace or remove any tab part or add personal notes – all changes will be seen only by you.

Personal tabs can be accessed anytime from any device, even offline.
Learn more »
comments
print report bad tab
8 comments total. Showing first comments. show 1 bad comment
0 reply
combatchuck62 10 Mar 16, 2007 02:08 PM

well i played it in standard tuning and it sounded fine

+2 reply
blinkrocks 127 May 09, 2007 06:55 AM

Dude for the LAST TIME, John doesn't play in Eb tuning, he plays standard and in drop D, just because the guitars are played in Eb tuning doesn't mean the bass is.

guest
Wanna post a correction for this tab? Suggest correction