Oops, an error
Loading. Please wait.

Softer To Me tab

version 2
version 2

Whole song

Interactive

1,972 views 1 this week
3 commentsread comments
1 2 3 4 5
2 more votes to show rating
add to favorites
×
Save as Personal and add changes to this tab that will be seen only by you. Learn more ›
×
You can save this tab as Personal to edit and correct it or add notes. All changes will be seen only by you. Learn more »
launch autoscroll
font size
0
reset
how to read this tab
guitar tuner
edit
Autoscroll
slow
fast
+/-
esc
set tempo
stop
Band-Relient K
Song-Softer To Me

All of the tabs for the main riff have been close, but not quite right...So this my version....

E-------------------------------------------
B-----------------------------------0010-001*
G-5565-5565--5----5------------7------------
D----------66-6-66-6----5565-55-5-----------
A-------------------------------------------
E-------------------------------------------

                *=HOLD ON LAST NOTE
I broke down the beats for you to make it easy for ya, hope this helps...

            
            
Suggest correction
Creating personal tab
Creating personal tab
You can edit any tab online and save it as your Personal.

You can edit, replace or remove any tab part or add personal notes – all changes will be seen only by you.

Personal tabs can be accessed anytime from any device, even offline.
Learn more »
Give kudos to tab author, rate the tab!
1 2 3 4 5
comments
print report bad tab
3 comments total.
0 reply
Mr.GuitarSkillz 35 Apr 12, 2002 08:00 PM

My bad, I made a mistake, instead of 5565-5575, it should be 5565-5585

0 reply
mcdougaldoug 0 Oct 21, 2002 08:00 PM

mcdougaldoug

play this fast 4 times
e:--------------------------------------
B:--------------------------------------
G:----55655565---5----------------------
D:------------666-66-667666765565556----
A:--------------------------------------
E:--------------------------------------

0 reply
John Mark 10 May 30, 2004 08:00 PM

^ that's good, but all of the /7's should be /8's

guest
You may want to rate the tab now too:
select rating
Wanna post a correction for this tab? Suggest correction