Oops, an error
Loading. Please wait.

Fair tab

version 2
version 2

Whole song

2,998 views 1 this week
no commentswrite comment
1 2 3 4 5
2 more votes to show rating
add to favorites
×
Save as Personal and add changes to this tab that will be seen only by you. Learn more ›
×
You can save this tab as Personal to edit and correct it or add notes. All changes will be seen only by you. Learn more »
launch autoscroll
font size
0
reset
how to read this tab
guitar tuner
edit
Autoscroll
slow
fast
+/-
esc
set tempo
stop
Tuning: Drop D

x= Do not play string
h= hammer on
p= pull off


E|-x--------x--------x-------x-|
B|-x--------x--------x-------x-|
G|-2--------2--------2-------2-|
D|-4--------4--------4-------4-|
A|-0--------2--------0-------2-|
D|-0--------x--------0-------x-|
Intro ^

 V1:
E|-x-----------x-------------x-------------x-|
B|-x-----------x-------------x-------------x-|
G|-2-----------2-------------5-------------x-|
D|-4-----------4-------------5-------------5-|
A|-0-----------2-------------3-------------5-|
D|-0-----------x-------------x-------------5-|
Hey, are you lonely? Has summer gone so slowly?

E|----x--------x--------------------------x-|
B|----x--------x--------------------------x-|
G|----2--------2--------------------------x-|
D|----4--------4--------------------------5-|
A|----0--------2--------------------------5-|
D|----0--------x--------------------------5-|
We found the ground and that damage was done.

E|-----x------------------------x-------x--------x-------|
B|-----x------------------------x-------x--------x-------|
G|-----x------------------------2-------x--------x-------|
D|-----7------------------------4-------4--------5-------|
A|-----7------------------------0-------4--------5-------|
D|-----7------------------------0-------4--------5-------|
It's cold as you fade into the sun. Where'd you go? To me?

 Break between V1 & V2- start lead here
E|-x------------x------------x-----------x--------|
B|-x------------x------------x-----------x--------|
G|-2------------2------------2-----------2--------|
D|-4------------4------------4-----------4--------|
A|-0------------2------------0-----------2--------|
D|-0------------x------------0-----------x--------|

 "LEAD"  Played until just before the end of V2
E|--------------------------------------------------|
B|--------------------------------------------------|
G|--11h12p-------11h12p--------11h12p------11h12p---|
D|--------------------------------------------------|
A|--------------------------------------------------|
D|--------------------------------------------------|


 V2:
E|-----------x----------------------x------x------------x-|
B|-----------x----------------------x------x------------x-|
G|-----------2----------------------2------5------------x-|
D|-----------4----------------------4------5------------5-|
A|-----------0----------------------2------3------------5-|
D|-----------0----------------------x------x------------5-|
But you're alive! Well, it's only fallen frames, they told me.


E|----------x------------x---------------------x-|
B|----------x------------x---------------------x-|
G|----------2------------2---------------------x-|
D|----------4------------4---------------------5-|
A|----------0------------2---------------------5-|
D|----------0------------x---------------------5-|
You stand out, it's so loud and so what if it is?


E|-----x-------------------------x-----x---------x-|
B|-----x-------------------------x-----x---------x-|
G|-----x-------------------------2-----x---------x-|
D|-----7-------------------------4-----4---------5-|
A|-----7-------------------------0-----4---------5-|
D|-----7-------------------------0-----4---------5-|
It's cold as you face into the wind. Where'd it go?

Tonight the sun shall see its light. 


CHORUS:

"LEAD" plays standard tuning, chords in " "

  "D"            "A"                     "Bm"
E|-x-------------x-----------------------x-|
B|-x-------------x-----------------------x-|
G|-2-------------x-----------------------2-|
D|-4-------------7-----------------------4-|
A|-0-------------7-----------------------2-|
D|-0-------------7-----------------------x-|
So what if you catch me,where would we land?

               "G"       "A"       "D"
E|--------------x---------x---------x---|
B|--------------x---------x---------x---|
G|--------------x---------x---------2---|
D|--------------5---------7---------4---|
A|--------------5---------7---------0---|
D|--------------5---------7---------0---|
In somebody's life for taking his hands.

            "A"                         "Bm"
E|-----------x---------------------------x--|
B|-----------x---------------------------x--|
G|-----------x---------------------------2--|
D|-----------7---------------------------4--|
A|-----------7---------------------------2--|
D|-----------7---------------------------x--|
Sing to me hope as she's thrown on the sand.

             "G"     "A"    "D"
E|------------x-------x------x-----x-------x--|
B|------------x-------x------x-----x-------x--|
G|------------x-------x------2-----x-------x--|
D|------------5-------7------4-----4-------5--|
A|------------5-------7------0-----4-------5--|
D|------------5-------7------0-----4-------5--|
All of your work is rated again. Where to go?


BRIDGE

E|--x------x------x------x------x------x------|
B|--x------x------x------x------x------x------|
G|--x------x------2------x------x------x------|
D|--4------5------4------7------4------5------|
A|--4------5------0------7------4------5------|
D|--4------5------0------7------4------5------|

VERSE

E|--------x-----x----------x---------------------x--|
B|--------x-----x----------x---------------------x--|
G|--------2-----x----------2---------------------x--|
D|--------4-----7----------4---------------------5--|
A|--------0-----7----------2---------------------5--|
D|--------0-----7----------x---------------------5--|
And you were somehow the rain this thing could allow.

E|----------------------x--------------x----|
B|----------------------x--------------x----|
G|----------------------2--------------2----|
D|----------------------4--------------4----|
A|----------------------0--------------2----|
D|----------------------0--------------x----|
I tried but it's all wrong you're so strong.

E|----------x----------------x-------------------x--|
B|----------x----------------x-------------------x--|
G|----------x----------------x-------------------2--|
D|----------5----------------7-------------------4--|
A|----------5----------------7-------------------0--|
D|----------5----------------7-------------------0--|
And this life and work and choice took far too long.

E|-x--------x-|
B|-x--------x-|
G|-x--------x-|
D|-4--------5-|
A|-4--------5-|
D|-4--------5-|
Where'd it go?

Tonight the sun shall see its light. 


CHORUS:

"LEAD" plays standard tuning, chords in " "

 "D"            "A"                     "Bm"
E|-x-------------x-----------------------x-|
B|-x-------------x-----------------------x-|
G|-2-------------x-----------------------2-|
D|-4-------------7-----------------------4-|
A|-0-------------7-----------------------2-|
D|-0-------------7-----------------------x-|
So what if you catch me,where would we land?

               "G"       "A"       "D"
E|--------------x---------x---------x---|
B|--------------x---------x---------x---|
G|--------------x---------x---------2---|
D|--------------5---------7---------4---|
A|--------------5---------7---------0---|
D|--------------5---------7---------0---|
In somebody's life for taking his hands.

            "A"                         "Bm"
E|-----------x---------------------------x--|
B|-----------x---------------------------x--|
G|-----------x---------------------------2--|
D|-----------7---------------------------4--|
A|-----------7---------------------------2--|
D|-----------7---------------------------x--|
Sing to me hope as she's thrown on the sand.

             "G"     "A"    "D"
E|------------x-------x------x---|
B|------------x-------x------x---|
G|------------x-------x------2---|
D|------------5-------7------4---|
A|------------5-------7------0---|
D|------------5-------7------0---|
All of your work is rated again.

  "D"       "A"                "Bm"
E|-x---------x------------------x-|
B|-x---------x------------------x-|
G|-2---------x------------------2-|
D|-4---------7------------------4-|
A|-0---------7------------------2-|
D|-0---------7------------------x-|
When I was sure you'd follow through,

     "G"       "A"      "D"
E|----x---------x--------x--|
B|----x---------x--------x--|
G|----x---------x--------2--|
D|----5---------7--------4--|
A|----5---------7--------0--|
D|----5---------7--------x--|
My world was turned to blue.

  "D"       "A"                  "Bm"
E|-x---------x---------------------x-|
B|-x---------x---------------------x-|
G|-2---------x---------------------2-|
D|-4---------7---------------------4-|
A|-0---------7---------------------2-|
D|-0---------7---------------------x-|
When you'd hide your songs would die,

    "G"      "A"       "D"
E|---x--------x---------x--|
B|---x--------x---------x--|
G|---x--------x---------2--|
D|---5--------7---------4--|
A|---5--------7---------0--|
D|---5--------7---------x--|
So I'd hide yours with mine.

  "D"        "A"               "Bm"
E|-x----------x------------------x-|
B|-x----------x------------------x-|
G|-2----------x------------------2-|
D|-4----------7------------------4-|
A|-0----------7------------------2-|
D|-0----------7------------------x-|
And all my words were bound to fail,

    "G"     "A"       "D"
E|---x-------x---------x--|
B|---x-------x---------x--|
G|---x-------x---------2--|
D|---5-------7---------4--|
A|---5-------7---------0--|
D|---5-------7---------x--|
But I know you won't fail.

 "G" "A"   "D"
E|-x--x-----x--|
B|-x--x-----x--|
G|-x--x-----2--|
D|-5--7-----4--|
A|-5--7-----0--|
D|-5--7-----x--|
See, I can tell.


There's another guitar playing something I haven't tried to dissect/

To me, this version sounds pretty close to the original... Enjoy!

            
            
Suggest correction
Creating personal tab
Creating personal tab
You can edit any tab online and save it as your Personal.

You can edit, replace or remove any tab part or add personal notes – all changes will be seen only by you.

Personal tabs can be accessed anytime from any device, even offline.
Learn more »
Give kudos to tab author, rate the tab!
1 2 3 4 5
comments
print report bad tab
guest
You may want to rate the tab now too:
select rating
Wanna post a correction for this tab? Suggest correction