Oops, an error
Loading. Please wait.

Alucinado tab

by Renacer
34 views 1 this week
no commentswrite comment
1 2 3 4 5
3 more votes to show rating
add to favorites
×
Save as Personal and add changes to this tab that will be seen only by you. Learn more ›
×
You can save this tab as Personal to edit and correct it or add notes. All changes will be seen only by you. Learn more »
launch autoscroll
font size
0
reset
how to read this tab
guitar tuner
edit
Autoscroll
slow
fast
+/-
esc
set tempo
stop
Como dije antes easta canciones van con una gutarra afinada en Mib lo cual
si no queres afinar tu guitarra otra ves podes cambiarlo desde el AvRack
que es lo unico bueno que tiene es poder cambiar las tonalidades de las
canciones como esta lo tenes que move una rayita para el sostenido

INTRO
e|------------------------------------------------
B|------------------------------------------------
G|-------7-9----7---12-11----------7-9----7---10--
D|-------7-9----7---12-11----------7-9----7---10--
A|--2-2--5-7----5---10-9------2-2--5-7----5---8---
E|--0-0-----------------------0-0-----------------
                                     __________      ____________
                                     |123            |4
e|-------------------------------------------------|----------------|
B|-------------------------------------------------|----------------|
G|-------7-9----7---12-11--------------------------|----------12----|
D|-------7-9----7---12-11---10----7----------------|----------12----|
A|--2-2--5-7----5---10-9----10----7----------------|----------10----|
E|--0-0---------------------8-----5-----0--3-2-0---|--0--3-2--------|


E                         C
Alucinado quede cuando el destino
D            A        E                            A    E
     iluminada te cruso en mi camino
E                      C
crei que eras lo que mi vida esperaba
D                  A                 G
     crei que eras lo que mis sueños anelaban

      F       G       A        F       G           A
e|--------------------------------------------------------
B|---5h6--6-6--5--------4h5----5h6--6-6--5----------------
G|----------------5-7-5--------------------5-7-5----------
D|------------------------------------------------5h7-----
A|--------------------------------------------------------
E|--------------------------------------------------------

      F       G       A        F       G           A
e|-----------------------------------------------4h6------
B|---5h6--6-6--5--------4h5----5h6--6-6--5----------------
G|----------------5-7-5--------------------5-7-5----------
D|--------------------------------------------------------
A|--------------------------------------------------------
E|--------------------------------------------------------

E                            C
y asi comienza esta historia en mi vida
D                   A                               E     A   E
     una ilusion que muy pronto terminaria
E                                     C
mucho eh perdido y a muchos eh lastimado
D                    A                 G
     solo importa estar siempre a tu lado


F       G         A
Otra vez me equivoque
F      G              A
no supuiste  comprender
F       G                 A
y elegimos el camino del adios
F            G               A
fue lo mejor para los dos


E                                   C
mucho cambiamos en los años compartidos
D           A            E                                 A  E
      y el respeto se perdio en el olvido
E                                  C
me lastimaste y yo tambien te eh lastimado
D           A            G
      la arma mentira se volvio nuestro pecado


F       G         A
Otra vez me equivoque
F      G              A
no supuiste  comprender
F       G                 A
y elegimos el camino del adios
F            G               A
fue lo mejor para los dos

INTRO x 2

                                                      x2
e|-----------------------------------------------------|
B|-----------------------------------------------------|
G|---------9----------7---------9----------------------|
D|---------9----------7---------9-----------10--7------|
A|---5-7-8-7---10-8-7-5---5-7-8-7---10-8-7--10--7------|
E|------------------------------------------8---5------|

[F - G - A] x2 C
                                                 x2
e|------------------------------------------------|
B|------------------------------------------------|
G|---------------------------------------4--5-----|EN LA SEGUNDA EN
D|---532-------------------------------4--5-----|VES DE C HACE UN A
A|---------532--2-3-5--2-3-5--2-3-5----2--3-----|
E|------------------------------------------------|
                                                      x2
e|-----------------------------------------------------|
B|-----------------------------------------------------|
G|---------9----------7---------9----------------------|
D|---------9----------7---------9-----------10--7------|
A|---5-7-8-7---10-8-7-5---5-7-8-7---10-8-7--10--7------|
E|------------------------------------------8---5------|

E                              C
y asi termima esta historia en mi vida
D                A                      E                          A  E
     cierro la puerta a esa ilusion que me lastima
E                             C
y guardare en mi solo buenos momentos
D                    A                           G
     y olvidare el dolor para empsar de nuevo


F       G         A
Otra vez me equivoque
F      G              A
no supuiste  comprender
F       G                 A
y elegimos el camino del adios
F            G               A
fue lo mejor para los dos


INTRO x2


-------------------------------------------------
AGUANTE EL HEAVY METAL ARGENTO

            
            
Suggest correction
Creating personal tab
Creating personal tab
You can edit any tab online and save it as your Personal.

You can edit, replace or remove any tab part or add personal notes – all changes will be seen only by you.

Personal tabs can be accessed anytime from any device, even offline.
Learn more »
Give kudos to tab author, rate the tab!
1 2 3 4 5
comments
print report bad tab
guest
Wanna post a correction for this tab? Suggest correction