Oops, an error
Loading. Please wait.

La Espada Sagrada tab

by Renacer
61 views 1 this week
no commentswrite comment
1 2 3 4 5
3 more votes to show rating
add to favorites
×
Save as Personal and add changes to this tab that will be seen only by you. Learn more ›
×
You can save this tab as Personal to edit and correct it or add notes. All changes will be seen only by you. Learn more »
launch autoscroll
font size
0
reset
how to read this tab
guitar tuner
edit
Autoscroll
slow
fast
+/-
esc
set tempo
stop
Intro:
  G#5                           E5             F#5
e-------------------------------------------------------------
B-------------------------------------------------------------
G-------------------------------------------------------------
D-------------------------------------------------------------   x  2
A--6--------------6--------------2--------------4-------------
E--4--4-4-4-4-4-4-4--4-4-4-4-4-4-0--0-0-0-0-0-0-2-2-2-6h7-7---

   G#5                    E5         F#5
e---------------------------------------------------
B---------------------------------------------------
G------------------------------------8-6---6--------
D--6----6-8-9--6----6-8-9-6----6-8-9-----9---9-8----
A---------------------------------------------------
E---------------------------------------------------
   G#5              E5          F#5
e---------------------------------------------------
B---------------------------------------------------
G-------------------11/13-13----13b15---------------
D--6----6-8-9--6-----------------------------------
A---------------------------------------------------
E---------------------------------------------------

Riff
e-----------------------------------------------------------------
B-----------------------------------------------------------------
G-----------------------------------------------------------------
D-----------------------------------------------------------------
A--6---------------------11-11---6---------------------6----------
E--4-4-7-4-4-9-4-4-7-4-4-9--9----4-4-7-4-4-9-4-4-7-4-4-4----------

   G#5                   E5         F#5
Bautizan a un niño en el nombre de Dios,
descubren que tienen un ser superior;
    E5          F#5       G#5      E5
los pastores advierten un don especial,
    E5         F#5          Riff
que viene a salvar nuestro mundo.

Entonces comunican a la humanidad,
la noticia se expande por todo el lugar;
después de medianoche se escuchó la información,
entonces prepara su fuga.

Solo Base en Re#

Sabía que algún día el mundo iba a estallar,
que culminaría en una destrucción total;
su espada sagrada brilló una vez más,
dispuesta a dar su vida por mí.

            
            
Suggest correction
Creating personal tab
Creating personal tab
You can edit any tab online and save it as your Personal.

You can edit, replace or remove any tab part or add personal notes – all changes will be seen only by you.

Personal tabs can be accessed anytime from any device, even offline.
Learn more »
Give kudos to tab author, rate the tab!
1 2 3 4 5
comments
print report bad tab
guest
Wanna post a correction for this tab? Suggest correction