Oops, an error
Loading. Please wait.

Song For All Seasons bass

462 views 1 this week
no commentswrite comment
1 2 3 4 5
3 more votes to show rating
add to favorites
×
Save as Personal and add changes to this tab that will be seen only by you. Learn more ›
×
You can save this tab as Personal to edit and correct it or add notes. All changes will be seen only by you. Learn more »
launch autoscroll
font size
0
reset
guitar tuner
edit
Autoscroll
slow
fast
+/-
esc
set tempo
stop
Author
----------------------------------------------------------------------------
			     Song For All Seasons - Renaissance
----------------------------------------------------------------------------


  first 3:36 of this epic.  admittedly, there are a couple runs which i cannot
  figure out, as the orchestra kinda drowns out the bass.  i at least
  wrote a note in those places.  the rest seems pretty spot on.  enjoy!


   0:00
G|-----------|---------------|--------|-------|
D|-----------|------------5--|-2------|-3-----|
A|--0--------|-5\----1-------|--------|-------|
E|-----------|---------------|--------|-------|

G|-------------------|-----------------|--3---2---0------------------------|
D|--------6-6--6-6---|------7-7--7-7---|--------------3---2---0------------|
A|--5--5-------------|5--5-------------|--------------------------3--------|
E|-------------------|-----------------|------------------------------3----|


  0:29
G|-------------------------4---2--0------------|
D|*--------------4--2---0------------4--2--0--*|
A|*-5--0--4--2--------------------------------*|  X 10
E|---------------------------------------------|


                                  mystery part: rundown in F
G|-------------------5-7-9-|--10-------------------------------------------|
D|---------2--3--5-7-------|-----------------------------------------------|
A|--3--5-------------------|-----------------------------------------------|
E|-------------------------|-----------------------------------------------|

     mystery part: climb in G#
G|------------------------------------------|--8h9---------------8-9-8-9---|
D|------------------------------------------|------8h9---------------------|
A|------------------------------------------|----------6h7-----------------|
E|-4----------------------------------------|--------------6h7-------------|

G|-------------------------4---2--0------------|
D|*--------------4--2---0------------4--2--0--*|
A|*-5--0--4--2--------------------------------*|  X 8
E|---------------------------------------------|


                                  mystery part: rundown in F again
G|-------------------5-7-9-|--10-------------------------------------------|
D|---------2--3--5-7-------|-----------------------------------------------|
A|--3--5-------------------|-----------------------------------------------|
E|-------------------------|-----------------------------------------------|

     mystery part: climb in G# again
G|------------------------------------------|--8h9---------------8-9-8-9---|
D|------------------------------------------|------8h9---------------------|
A|------------------------------------------|----------6h7-----------------|
E|-4----------------------------------------|--------------6h7-------------|

G|-------------------------|--------------------------|
D|------------------5------|------------------5-------|
A|--7--7--7--7--5-7---7-5--|--7--7--7--7--5-7---7-5---|
E|-------------------------|--------------------------|


  1:52
G|-----6--4--------6--4--6--8h9p8-|-----6--4--------6--4--6------4---|
D|-----------6--------------------|-----------6--------------4h6-----|
A|--4-----------4-----------------|--4-----------4-------------------| X 3
E|--------------------------------|----------------------------------|


                            mystery part: in B
G|-----------2--4--6--|--4----------------------|
D|--2--4--5-----------|-------------------------|
A|--------------------|-------------------------|
E|--------------------|-------------------------|

G|--------------------|--9-8----7-6----5-4----|----------|
D|-----------0--2--4--|------9------7------5--|----------|
A|--0--2--3-----------|-----------------------|--7---7---|
E|--------------------|-----------------------|----------|


  2:21
G|-----6--4--------6--4--6--8h9p8-|-----6--4--------6--4--6------4---|
D|-----------6--------------------|-----------6--------------4h6-----|
A|--4-----------4-----------------|--4-----------4-------------------| X 3
E|--------------------------------|----------------------------------|

G|----------------------|-----------------11--13--|-14--16--17-16-14-16-14-|
D|------------7--9--11--|--9--11--13--14----------|------------------------|
A|--7--9--10------------|-------------------------|------------------------|
E|----------------------|-------------------------|------------------------|

G|--9-8----7-6----5-4---|-------------------------|------------------------|
D|------9------7------5-|------------------5------|------------------5-----|
A|----------------------|--7--7--7--7--5-7---7-5--|--7--7--7--7--5-7---7-5-|
E|----------------------|-------------------------|------------------------|

G|--9-8----7-6----5-4---|-----------------|-----------------8-|
D|------9------7------5-|---------------6-|-7-6-7-9-10-9-10---|
A|----------------------|-6-5-6-8-9-8-9---|-------------------|
E|----------------------|-----------------|-------------------|


                                                    solo piano
G|-9-8-9-11-12-11-12-14-|-15-14-15-17-18-17-18-20-|------------------------|
D|----------------------|-------------------------|------------------------|
A|----------------------|-------------------------|------------------------|
E|----------------------|-------------------------|------------------------|


  3:06
G|---------------------------|-----------------------|---------------------|
D|--2--0---------------------|-----------------------|--------4--5--7--4---|
A|--------3--2--0--------/14\|-----------------------|--7--6---------------|
E|-----------------3--2------|--0------0------2------|---------------------|

G|-----------------------|--------------------|----------|-----------------|
D|-----------------------|--------4--5--7--4--|----------|-----------------|
A|-----/14\----/14\------|--7--6--------------|--3-------|-----------------|
E|--0-------0-------2----|--------------------|-------2--|-0---------------|


| /  slide up
| \  slide down
| h  hammer-on
| p  pull-off
| ~  vibrato
| +  harmonic
| x  Mute note
============================================================================

            
            
Suggest correction
Creating personal tab
Creating personal tab
You can edit any tab online and save it as your Personal.

You can edit, replace or remove any tab part or add personal notes – all changes will be seen only by you.

Personal tabs can be accessed anytime from any device, even offline.
Learn more »
Give kudos to tab author, rate the tab!
1 2 3 4 5
comments
print report bad tab
guest
You may want to rate the tab now too:
select rating
Wanna post a correction for this tab? Suggest correction