Oops, an error
Loading. Please wait.

Discourse tab

22 views 1 this week
no commentswrite comment
1 2 3 4 5
2 more votes to show rating
add to favorites
×
Save as Personal and add changes to this tab that will be seen only by you. Learn more ›
×
You can save this tab as Personal to edit and correct it or add notes. All changes will be seen only by you. Learn more »
launch autoscroll
font size
0
reset
how to read this tab
guitar tuner
edit
Autoscroll
slow
fast
+/-
esc
set tempo
stop
    e|-------------------------------------------------------------------------------------------------------|
    B|----8-----8-----8-----8-----8-----8-----8-----8-----10-----10-----10-----10-----10-----10-----10-----10|
GTR G|--9-----9-----9-----9-----9-----9-----9-----9-----7------7------7------7------7------7------7------7---|
 1  D|7-----7-----7-----7-----7-----7-----7-----7-----7------7------7------7------7------7------7------7-----|
    A|-------------------------------------------------------------------------------------------------------|
    D|-------------------------------------------------------------------------------------------------------|

    e|-------------------------------------------------------------------------------------------------------|
    B|----8-----8-----8-----8-----8-----8-----8-----8-----10-----10-----10-----10-----10-----10-----10-----10|
GTR G|--9-----9-----9-----9-----9-----9-----9-----9-----7------7------7------7------7------7------7------7---|
 1  D|7-----7-----7-----7-----7-----7-----7-----7-----7------7------7------7------7------7------7------7-----|
    A|-------------------------------------------------------------------------------------------------------|
    D|-------------------------------------------------------------------------------------------------------|

    e|-------------------------------------------------------------------------------------------------------|
    B|-------------------------------------------------------------------------------------------------------|
GTR G|-------------------------------------------------------------------------------------------------------|
 2  D|-2-----------------------------------------------------------------------------------------------------|
    A|-2----------------------------------------------0------------------------------------------------------|
    D|-2----------------------------------------------0------------------------------------------------------|
                                                      *

Ring out palm mute

e|----------------------------------------------------------------------------------------------------|
B|----------------------------------------------------------------------------------------------------|
G|-55555555555555555555555555555555-------------------------------------------------------------------|
D|-55555555555555555555555555555555--------------------9999-----------------------------9999----------| x2
A|-33333333333333333333333333333333-8888-7777-10101010------10101010-8888-7777-10101010------10101010-|
D|-33333333333333333333333333333333-------------------------------------------------------------------|

e|-----------------------------------------------------------------------------------------------------------|
B|-----------------------------------------------------------------------------------------------------------|
G|5-55-5-55-55-555-5-55-5-55-55-55-5-------------------------------------------------------------------------|
D|5-55-5-55-55-555-5-55-5-55-55-55-5-10-----10-----9-----9-----9-10-12-10-----10-----9-------12-10-9-9h10p9-7|
A|3-33-3-33-33-333-3-33-3-33-33-33-3----8-8----8-8---8-8---8-8------------8-8----8-8---10-10-----------------|
D|3-33-3-33-33-333-3-33-3-33-33-33-3-------------------------------------------------------------------------|

e|----------------------------------|
B|----------------------------------|
G|-55555555555555555555555555555555-|
D|-55555555555555555555555555555555-| 
A|-33333333333333333333333333333333-|
D|-33333333333333333333333333333333-|

    e|-----------------------------|
    B|-----------------------------|
GTR G|-----------------------------|
 1  D|-----------------------------| x2
    A|-----------------------------|
    D|-000000000--000000000--0-0-0-|
       *********  *********  * * *

    e|-----------------------------|
    B|-----------------------------|
GTR G|-----------------------------|
 2  D|-----------------------------| x2
    A|-----------------------------|
    D|-----------------------------|

    e|-----------------------------|
    B|-----------------------------|
GTR G|-----------------------------|
 1  D|-----------------------------| x1
    A|-----------------------------|
    D|-----------------------------|

    e|-----------------------------|
    B|-----------------------------|
GTR G|-----------------------------|
 2  D|-----------------------------| x1
    A|-----------------------------|
    D|-000000000--000000000--0-0-0-|
       *********  *********  * * *

    e|----------------------------------|
    B|---------------------------10-----|
GTR G|-----------------------13------13-|
 1  D|----------------------------------| x1
    A|----------------------------------|
    D|----------------------------------|

    e|-----------------------------|
    B|-----------------------------|
GTR G|-----------------------------|
 2  D|-----------------------------| x1
    A|-----------------------------|
    D|-000000000--000000000--0-0-0-|
       *********  *********  * * *

    e|-----------------------------|
    B|-----------------------------|
GTR G|-----------------------------|
1+2 D|-----------------------------| x4
    A|-----------------------------|
    D|-000000000--000000000--0-0-0-|
       *********  *********  * * *

    e|-----------------------------|
    B|-----------------------------|
GTR G|-----------------------------|
 1  D|-----------------------------| x4
    A|-----------------------------|
    D|-000000000--000000000--0-0-0-|
       *********  *********  * * *

    e|----------------------------------|
    B|----------------------------------|
GTR G|----------------------------------|
 2  D|--------------------9999----------|
    A|-8888-7777-10101010------10101010-|
    D|----------------------------------|

e|-------------------------------------------------------------------|
B|-------------------------------------------------------------------|
G|-55555555555555555555555555555555-10101010-9999-121212-161616-1212-|
D|-55555555555555555555555555555555----------------------------------| x2
A|-33333333333333333333333333333333-8-8-8-8--7777-101010-141414-1010-|
D|-33333333333333333333333333333333----------------------------------|

e|--------------0-(Ring out)--------------|
B|---------------------------0------------|
G|-5-------------------------0-(Ring out)-|
D|-5-------------------------0------------|
A|-3-(Ring out)---------------------------|
D|-3--------------------------------------|

e|---------------------------------------------------------------------------------------------------|
B|---------------------------------------------------------------------------------------------------|
G|-5-55-5-55-55-5555-5-55-5-55-55-15151515-14-1414-14-1414-1414-14141414-14-1414-14-14-1212-12121212-|
D|-5-55-5-55-55-5555-5-55-5-55-55-15151515-14-1414-14-1414-1414-14141414-14-1414-14-14-1212-12121212-| x2
A|-3-33-3-33-33-3333-3-33-3-33-33-13131313-12-1212-12-1212-1212-12121212-12-1212-12-12-1010-10101010-|
D|-3-33-3-33-33-3333-3-33-3-33-33-13131313-12-1212-12-1212-1212-12121212-12-1212-12-12-1010-10101010-|

e|------0-----0----0------0-----0--------------------------------------------------------------------|
B|------0-----0----0------0-----0--------------------------------------------------------------------|
G|-5-55-5-55-55-55-5-5-55-5-55-55-15151515-14-1414-14-1414-1414-14141414-14-1414-14-14-1212-12121212-|
D|-5-55-5-55-55-55-5-5-55-5-55-55-15151515-14-1414-14-1414-1414-14141414-14-1414-14-14-1212-12121212-| x2
A|-3-33-3-33-33-33-3-3-33-3-33-33-13131313-12-1212-12-1212-1212-12121212-12-1212-12-12-1010-10101010-|
D|-3-33-3-33-33-33-3-3-33-3-33-33-13131313-12-1212-12-1212-1212-12121212-12-1212-12-12-1010-10101010-|

e|-------3------------------3------------|
B|-------3------------------3------------|
G|-------5-(Ring out)-------5-(Ring out)-|
D|-------5------------------5------------|
A|-0--0---------------0--0---------------|
D|-0--0---------------0--0---------------|
   *  *               *  *

    e|-----0---5-0-----0---5-0-----0---5-0-----0---5-0-|
    B|---3---3-------3---3-------3---3-------3---3-----|
GTR G|-------------------------------------------------|
 1  D|-------------------------------------------------| x4
    A|-------------------------------------------------|
    D|-0-----------0-----------3-----------2-----------|

    e|-------------------------------------------------|
    B|-------------------------------------------------|
GTR G|-------------------------------------------------|
 2  D|-0-----------0-----------3-----------2-----------| x4
    A|-0-----------0-----------3-----------2-----------|
    D|-0-----------0-----------3-----------2-----------|

Ring out each note

e|-----------------------|
B|--------------18-18-18-|
G|--------------21-21-21-|
D|-0---------------------|
A|-0-(Ring out)----------|
D|-0---------------------|

    e|-----------------------------|
    B|-----------------------------|
GTR G|-----------------------------|
1+2 D|-----------------------------| x4
    A|-----------------------------|
    D|-000000000--000000000--0-0-0-|
       *********  *********  * * *

    e|------------------------------|
    B|---------------------------18-|
GTR G|---------------------------21-|
1+2 D|------------------------------| x4
    A|------------------------------|
    D|-000000000--000000000--0-0----|
       *********  *********  * * 


            
            
Suggest correction
Creating personal tab
Creating personal tab
You can edit any tab online and save it as your Personal.

You can edit, replace or remove any tab part or add personal notes – all changes will be seen only by you.

Personal tabs can be accessed anytime from any device, even offline.
Learn more »
Give kudos to tab author, rate the tab!
1 2 3 4 5
comments
print report bad tab
guest
You may want to rate the tab now too:
select rating
Wanna post a correction for this tab? Suggest correction