Oops, an error
Loading. Please wait.

Take It On The Run tab

version 2
version 2

Whole song

Interactive

Video

616 views 1 this week
no commentswrite comment
1 2 3 4 5
2 more votes to show rating
add to favorites
×
Save as Personal and add changes to this tab that will be seen only by you. Learn more ›
×
You can save this tab as Personal to edit and correct it or add notes. All changes will be seen only by you. Learn more »
launch autoscroll
font size
0
reset
how to read this tab
guitar tuner
backing track
0:00
0:00
edit
Autoscroll
slow
fast
+/-
esc
set tempo
stop
Author
Difficulty
TAKE IT ON THE RUN

As recorded by REO Speedwagon
(From the 1980 Album HI INFIDELITY)

Words and Music by Gary Richrath

Transcribed by Slowhand


Gtr I (E A D G B E) - 'Kevin Cronin - Acoustic Guitar'
Gtr II (E A D G B E) - 'Gary Richrath - Electric Guitar'
Gtr III (E A D G B E) - 'Gary Richrath - Electric Guitar'


 1st Verse
  Q=78
  G                         C
 4/4
  Gtr I (Ac. Gtr.)
  E S S E S S E S S E S S   E S S E S S E S S E S S
|-3-3-3-3-3-3-3-3-3-3-3-3-|-3-3-3-3-3-3-3-3-3-3-3-3-|
|-0-0-0-0-0-0-0-0-0-0-0-0-|-1-1-1-1-1-1-1-1-1-1-1-1-|
|-0-0-0-0-0-0-0-0-0-0-0-0-|-0-0-0-0-0-0-0-0-0-0-0-0-|
|-0-0-0-0-0-0-0-0-0-0-0-0-|-2-2-2-2-2-2-2-2-2-2-2-2-|
|-2-2-2-2-2-2-2-2-2-2-2-2-|-3-3-3-3-3-3-3-3-3-3-3-3-|
|-3-3-3-3-3-3-3-3-3-3-3-3-|-------------------------|
|
| Gtr II (El. Gtr. w/ dist.)
| W                         W
|-------------------------|-------------------------|
|-------------------------|-------------------------|
|-------------------------|-------------------------|
|-------------------------|-------------------------|
|-------------------------|-------------------------|
|-------------------------|-------------------------|


  D                         G           DsuD4
  E S S E S S E S S E S S   E S S E S S Q  Q
|-2-2-2-2-2-2-2-2-2-2-2-2-|-3-3-3-3-3-3-3--2--|
|-3-3-3-3-3-3-3-3-3-3-3-3-|-0-0-0-0-0-0-3--3--|
|-2-2-2-2-2-2-2-2-2-2-2-2-|-0-0-0-0-0-0-2--2--|
|-0-0-0-0-0-0-0-0-0-0-0-0-|-0-0-0-0-0-0-0--0--|
|-------------------------|-2-2-2-2-2-2-------|
|-------------------------|-3-3-3-3-3-3-------|
|
| W                         H           Q  Q
|-------------------------|-------------------|
|-------------------------|-------------8--7--|
|-------------------------|-------------7--7--|
|-------------------------|-------------7--7--|
|-------------------------|-------------------|
|-------------------------|-------------------|


  G                          C
  Gtr I
  E  S S E S S E S S E S S   E  S S E S S E S S E S S
|-3--3-3-3-3-3-3-3-3-3-3-3-|-3--3-3-3-3-3-3-3-3-3-3-3-|
|-0--0-0-0-0-0-0-0-0-0-0-0-|-1--1-1-1-1-1-1-1-1-1-1-1-|
|-0--0-0-0-0-0-0-0-0-0-0-0-|-0--0-0-0-0-0-0-0-0-0-0-0-|
|-0--0-0-0-0-0-0-0-0-0-0-0-|-2--2-2-2-2-2-2-2-2-2-2-2-|
|-2--2-2-2-2-2-2-2-2-2-2-2-|-3--3-3-3-3-3-3-3-3-3-3-3-|
|-3--3-3-3-3-3-3-3-3-3-3-3-|--------------------------|
|
| Gtr II
| H.                 Q       H.                 Q
|--------------------------|--------------------------|
|--------------------------|--------------------------|
|--------------------------|-5------------------5-----|
|-5------------------5-----|-5------------------5-----|
|-5------------------5-----|-3------------------3-----|
|-3------------------3-----|--------------------------|


  D                            G
  E  S S E S S E S S E   S S   E S S E S S E   S S E   S S
|-2--2-2-2-2-2-2-2-2-2---2-2-|-3-3-3-3-3-3-3---3-3-3---3-3-||
|-3--3-3-3-3-3-3-3-3-3---3-3-|-0-0-0-0-0-0-0---0-0-0---0-0-||
|-2--2-2-2-2-2-2-2-2-2---2-2-|-0-0-0-0-0-0-0---0-0-0---0-0-||
|-0--0-0-0-0-0-0-0-0-0---0-0-|-0-0-0-0-0-0-0---0-0-0---0-0-||
|----------------------------|-2-2-2-2-2-2-2---2-2-2---2-2-||
|----------------------------|-3-3-3-3-3-3-3---3-3-3---3-3-||
|
| H.                 S S E     H           S S E   S S E
|----------------------------|-----------------------------||
|--------------------8p7-----|-----------------------------||
|-7----------------------7---|-----------------------------||
|-7--------------------------|-5-----------5h7-5-----------||
|-5--------------------------|-5-------------------5h7-5---||
|----------------------------|-3---------------------------||


 2nd Verse
  G                          C
  E  S S E S S E S S E S S   E  S S E S S E S S E S S
|-3--3-3-3-3-3-3-3-3-3-3-3-|-3--3-3-3-3-3-3-3-3-3-3-3-|
|-0--0-0-0-0-0-0-0-0-0-0-0-|-1--1-1-1-1-1-1-1-1-1-1-1-|
|-0--0-0-0-0-0-0-0-0-0-0-0-|-0--0-0-0-0-0-0-0-0-0-0-0-|
|-0--0-0-0-0-0-0-0-0-0-0-0-|-2--2-2-2-2-2-2-2-2-2-2-2-|
|-2--2-2-2-2-2-2-2-2-2-2-2-|-3--3-3-3-3-3-3-3-3-3-3-3-|
|-3--3-3-3-3-3-3-3-3-3-3-3-|--------------------------|
|
| H.                 Q       H.                 Q
|--------------------------|--------------------------|
|--------------------------|--------------------------|
|--------------------------|-5------------------5-----|
|-5------------------5-----|-5------------------5-----|
|-5------------------5-----|-3------------------3-----|
|-3------------------3-----|--------------------------|


  D                            G
  E  S S E S S E S S E   S S   E S S E S S E   S S E   S S
|-2--2-2-2-2-2-2-2-2-2---2-2-|-3-3-3-3-3-3-3---3-3-3---3-3-|
|-3--3-3-3-3-3-3-3-3-3---3-3-|-0-0-0-0-0-0-0---0-0-0---0-0-|
|-2--2-2-2-2-2-2-2-2-2---2-2-|-0-0-0-0-0-0-0---0-0-0---0-0-|
|-0--0-0-0-0-0-0-0-0-0---0-0-|-0-0-0-0-0-0-0---0-0-0---0-0-|
|----------------------------|-2-2-2-2-2-2-2---2-2-2---2-2-|
|----------------------------|-3-3-3-3-3-3-3---3-3-3---3-3-|
|
| H.                 S S E     H           S S E   S S E
|----------------------------|-----------------------------|
|--------------------8p7-----|-----------------------------|
|-7----------------------7---|-----------------------------|
|-7--------------------------|-5-----------5h7-5-----------|
|-5--------------------------|-5-------------------5h7-5---|
|----------------------------|-3---------------------------|


  G                          C
  E  S S E S S E S S E S S   E  S S E S S E S S E S S
|-3--3-3-3-3-3-3-3-3-3-3-3-|-3--3-3-3-3-3-3-3-3-3-3-3-|
|-0--0-0-0-0-0-0-0-0-0-0-0-|-1--1-1-1-1-1-1-1-1-1-1-1-|
|-0--0-0-0-0-0-0-0-0-0-0-0-|-0--0-0-0-0-0-0-0-0-0-0-0-|
|-0--0-0-0-0-0-0-0-0-0-0-0-|-2--2-2-2-2-2-2-2-2-2-2-2-|
|-2--2-2-2-2-2-2-2-2-2-2-2-|-3--3-3-3-3-3-3-3-3-3-3-3-|
|-3--3-3-3-3-3-3-3-3-3-3-3-|--------------------------|
|
| H.                 Q       H.                 Q
|--------------------------|--------------------------|
|--------------------------|--------------------------|
|--------------------------|-5------------------5-----|
|-5------------------5-----|-5------------------5-----|
|-5------------------5-----|-3------------------3-----|
|-3------------------3-----|--------------------------|


  D                            G                 D/F#
  E  S S E S S E S S E   S S   E S S E S S E S S E S S
|-2--2-2-2-2-2-2-2-2-2---2-2-|-3-3-3-3-3-3-3-3-3-2-2-2---||
|-3--3-3-3-3-3-3-3-3-3---3-3-|-0-0-0-0-0-0-0-0-0-3-3-3---||
|-2--2-2-2-2-2-2-2-2-2---2-2-|-0-0-0-0-0-0-0-0-0-2-2-2---||
|-0--0-0-0-0-0-0-0-0-0---0-0-|-0-0-0-0-0-0-0-0-0-0-0-0---||
|----------------------------|-2-2-2-2-2-2-2-2-2---------||
|----------------------------|-3-3-3-3-3-3-3-3-3-2-2-2---||
|
| H.                 S S E     H           Q     Q
|----------------------------|---------------------------||
|--------------------8p7-----|---------------------------||
|-7----------------------7---|---------------------------||
|-7--------------------------|-5-------------------------||
|-5--------------------------|-5-------------------------||
|----------------------------|-3-----------3-----2-------||


   Chorus
    Em                          Cmaj7
    E S S E   S S E S S E S S   E S S E   S S E S S E S S
||--0-0-0-0---0-0-0-0-0-0-0-0-|-0-0-0-0---0-0-0-0-0-0-0-0-|
||o-0-0-0-0---0-0-0-0-0-0-0-0-|-0-0-0-0---0-0-0-0-0-0-0-0-|
||--0-0-0-0---0-0-0-0-0-0-0-0-|-0-0-0-0---0-0-0-0-0-0-0-0-|
||--2-2-2-2---2-2-2-2-2-2-2-2-|-2-2-2-2---2-2-2-2-2-2-2-2-|
||o-2-2-2-2---2-2-2-2-2-2-2-2-|-3-3-3-3---3-3-3-3-3-3-3-3-|
||--0-0-0-0---0-0-0-0-0-0-0-0-|---------------------------|
|
|   Q     S S S S Q     Q       Q     S S S S Q     Q
||----------------0-----0-----|---------------0-----0-----|
||o-------------0-------0-----|-------------0-------0-----|
||------------0---------0-----|-----------0---------0-----|
||--------0-2-----------2-----|-------0-2-----------2-----|
||o---------------------2-----|-3-------------------3-----|
||--0-------------------0-----|---------------------------|


  D           Dsus4 D       G
  E S S E S S E S S E S S   E S S E S S E S S E S S
|-2-2-2-2-2-2-3-3-3-2-2-2-|-3-3-3-3-3-3-3-3-3-2-2-2-|
|-3-3-3-3-3-3-3-3-3-3-3-3-|-0-0-0-0-0-0-0-0-0-3-3-3-|
|-2-2-2-2-2-2-2-2-2-2-2-2-|-0-0-0-0-0-0-0-0-0-2-2-2-|
|-0-0-0-0-0-0-0-0-0-0-0-0-|-0-0-0-0-0-0-0-0-0-0-0-0-|
|-------------------------|-2-2-2-2-2-2-2-2-2-------|
|-------------------------|-3-3-3-3-3-3-3-3-3-2-2-2-|
|
| H           Q     Q       H           Q     Q
|-2-----------3-----2-----|-------------------------|
|-3-----------3-----3-----|-------------------------|
|-2-----------2-----2-----|-------------------------|
|-0-----------0-----0-----|-5-----------------------|
|-------------------------|-5-----------------------|
|-------------------------|-3-----------3-----2-----|


  Em                          Cmaj7
  E S S E   S S E S S E S S   E S S E   S S E S S E S S
|-0-0-0-0---0-0-0-0-0-0-0-0-|-0-0-0-0---0-0-0-0-0-0-0-0-|
|-0-0-0-0---0-0-0-0-0-0-0-0-|-0-0-0-0---0-0-0-0-0-0-0-0-|
|-0-0-0-0---0-0-0-0-0-0-0-0-|-0-0-0-0---0-0-0-0-0-0-0-0-|
|-2-2-2-2---2-2-2-2-2-2-2-2-|-2-2-2-2---2-2-2-2-2-2-2-2-|
|-2-2-2-2---2-2-2-2-2-2-2-2-|-3-3-3-3---3-3-3-3-3-3-3-3-|
|-0-0-0-0---0-0-0-0-0-0-0-0-|---------------------------|
|
| Q     S S S S Q     Q       Q     S S S S Q     Q
|---------------0-----0-----|---------------0-----0-----|
|-------------0-------0-----|-------------0-------0-----|
|-----------0---------0-----|-----------0---------0-----|
|-------0-2-----------2-----|-------0-2-----------2-----|
|---------------------2-----|-3-------------------3-----|
|-0-------------------0-----|---------------------------|


  Am                          D           Dsus4 D
  E S S E   S S E S S E S S   E S S E S S E S S E S S
|-0-0-0-0---0-0-0-0-0-0-0-0-|-2-2-2-2-2-2-3-3-3-2-2-2-||
|-1-1-1-1---1-1-1-1-1-1-1-1-|-3-3-3-3-3-3-3-3-3-3-3-3-||
|-2-2-2-2---2-2-2-2-2-2-2-2-|-2-2-2-2-2-2-2-2-2-2-2-2-||
|-2-2-2-2---2-2-2-2-2-2-2-2-|-0-0-0-0-0-0-0-0-0-0-0-0-||
|-0-0-0-0---0-0-0-0-0-0-0-0-|-------------------------||
|---------------------------|-------------------------||
|
| Q     S S S S H             H           Q     Q
|---------------------------|-------------------------||
|---------------1-----------|-------------8-----7-----||
|-----------0-2-------------|-7-----------7-----7-----||
|-------0-2-----------------|-7-----------7-----7-----||
|-0-------------------------|-5-----------------------||
|---------------------------|-------------------------||


 3rd Verse
  1.
  G                          C
  E  S S E S S E S S E S S   E  S S E S S E S S E S S
|-3--3-3-3-3-3-3-3-3-3-3-3-|-3--3-3-3-3-3-3-3-3-3-3-3-|
|-0--0-0-0-0-0-0-0-0-0-0-0-|-1--1-1-1-1-1-1-1-1-1-1-1-|
|-0--0-0-0-0-0-0-0-0-0-0-0-|-0--0-0-0-0-0-0-0-0-0-0-0-|
|-0--0-0-0-0-0-0-0-0-0-0-0-|-2--2-2-2-2-2-2-2-2-2-2-2-|
|-2--2-2-2-2-2-2-2-2-2-2-2-|-3--3-3-3-3-3-3-3-3-3-3-3-|
|-3--3-3-3-3-3-3-3-3-3-3-3-|--------------------------|
|
| H.                 Q       H.                 Q
|--------------------------|--------------------------|
|--------------------------|--------------------------|
|--------------------------|-5------------------5-----|
|-5------------------5-----|-5------------------5-----|
|-5------------------5-----|-3------------------3-----|
|-3------------------3-----|--------------------------|


  D                            G
  E  S S E S S E S S E   S S   E S S E S S E   S S E   S S
|-2--2-2-2-2-2-2-2-2-2---2-2-|-3-3-3-3-3-3-3---3-3-3---3-3-|
|-3--3-3-3-3-3-3-3-3-3---3-3-|-0-0-0-0-0-0-0---0-0-0---0-0-|
|-2--2-2-2-2-2-2-2-2-2---2-2-|-0-0-0-0-0-0-0---0-0-0---0-0-|
|-0--0-0-0-0-0-0-0-0-0---0-0-|-0-0-0-0-0-0-0---0-0-0---0-0-|
|----------------------------|-2-2-2-2-2-2-2---2-2-2---2-2-|
|----------------------------|-3-3-3-3-3-3-3---3-3-3---3-3-|
|
| H.                 S S E     H           S S E   S S E
|----------------------------|-----------------------------|
|--------------------8p7-----|-----------------------------|
|-7----------------------7---|-----------------------------|
|-7--------------------------|-5-----------5h7-5-----------|
|-5--------------------------|-5-------------------5h7-5---|
|----------------------------|-3---------------------------|


  G                          C
  E  S S E S S E S S E S S   E  S S E S S E S S E S S
|-3--3-3-3-3-3-3-3-3-3-3-3-|-3--3-3-3-3-3-3-3-3-3-3-3-|
|-0--0-0-0-0-0-0-0-0-0-0-0-|-1--1-1-1-1-1-1-1-1-1-1-1-|
|-0--0-0-0-0-0-0-0-0-0-0-0-|-0--0-0-0-0-0-0-0-0-0-0-0-|
|-0--0-0-0-0-0-0-0-0-0-0-0-|-2--2-2-2-2-2-2-2-2-2-2-2-|
|-2--2-2-2-2-2-2-2-2-2-2-2-|-3--3-3-3-3-3-3-3-3-3-3-3-|
|-3--3-3-3-3-3-3-3-3-3-3-3-|--------------------------|
|
| H.                 Q       H.                 Q
|--------------------------|--------------------------|
|--------------------------|--------------------------|
|--------------------------|-5------------------5-----|
|-5------------------5-----|-5------------------5-----|
|-5------------------5-----|-3------------------3-----|
|-3------------------3-----|--------------------------|


  D                            G               D/F#
  E  S S E S S E S S E   S S   E S S E S S E S S E S S
|-2--2-2-2-2-2-2-2-2-2---2-2-|-3-3-3-3-3-3-3-3-3-2-2-2----||
|-3--3-3-3-3-3-3-3-3-3---3-3-|-0-0-0-0-0-0-0-0-0-3-3-3---o||
|-2--2-2-2-2-2-2-2-2-2---2-2-|-0-0-0-0-0-0-0-0-0-2-2-2----||
|-0--0-0-0-0-0-0-0-0-0---0-0-|-0-0-0-0-0-0-0-0-0-0-0-0----||
|----------------------------|-2-2-2-2-2-2-2-2-2---------o||
|----------------------------|-3-3-3-3-3-3-3-3-3-2-2-2----||
|
| H.                 S S E     H           Q     Q
|----------------------------|----------------------------||
|--------------------8p7-----|---------------------------o||
|-7----------------------7---|----------------------------||
|-7--------------------------|-5--------------------------||
|-5--------------------------|-5-------------------------o||
|----------------------------|-3-----------3-----2--------||


 Guitar Solo
  2.
  Em                                            C
  E S S  E     S  S  E     S  S   E      S  S   E S S  E     S  S  E  S  S   E      S S
|-0-0-0--0-----0--0--0-----0--0---0------0--0-|-0-0-0--0-----0--0--0--0--0---0------0-0-|
|-0-0-0--0-----0--0--0-----0--0---0------0--0-|-1-1-1--1-----1--1--1--1--1---1------1-1-|
|-0-0-0--0-----0--0--0-----0--0---0------0--0-|-0-0-0--0-----0--0--0--0--0---0------0-0-|
|-2-2-2--2-----2--2--2-----2--2---2------2--2-|-2-2-2--2-----2--2--2--2--2---2------2-2-|
|-2-2-2--2-----2--2--2-----2--2---2------2--2-|-3-3-3--3-----3--3--3--3--3---3------3-3-|
|-0-0-0--0-----0--0--0-----0--0---0------0--0-|-----------------------------------------|
|
| Q      S  S  S  S  S  S  S  S  +S   S  S  S   Q      S  S  S  S  E  S  S  +S   S  E
|---------------------------------------------|-----------------------------------------|
|-------20-20-20-20-20-20-20-19-(19)-17-17-19-|-------20-20-20-20-20-20-19-(19)-17-19---|
|---------------------------------------------|-----------------------------------------|
|---------------------------------------------|-----------------------------------------|
|---------------------------------------------|-----------------------------------------|
|---------------------------------------------|-----------------------------------------|
|
| Gtr III (El. Gtr. w/ dist.)
| Q      S  S  S  S  S  S  S  S  +S   S  S  S   Q      S  S  S  S  E  S  S  +S   S  E
|---------------------------------------------|-----------------------------------------|
|---------------------------------------------|-----------------------------------------|
|-------16-16-16-16-16-16-16-14-(14)-12-12-14-|-------17-17-17-17-17-17-16-(16)-14-16---|
|---------------------------------------------|-----------------------------------------|
|---------------------------------------------|-----------------------------------------|
|---------------------------------------------|-----------------------------------------|


  Am                   C
   E S S   E      S  S   E  S S   E      S S
|--0-0-0---0------0--0---0--0-0---0------0-0---|
|--1-1-1---1------1--1---1--1-1---1------1-1---|
|--2-2-2---2------2--2---0--0-0---0------0-0---|
|--2-2-2---2------2--2---2--2-2---2------2-2---|
|--0-0-0---0------0--0---3--3-3---3------3-3---|
|----------------------------------------------|
|
|  ~~~~~~~~~~~           ~~~~~~~~~~~~
|  Q      +S   S  S  S  +Q       +S   S  E
|-17-----(17)----17-20-(20)-----(20)-19-20-----|
|-------------20-------------------------------|
|----------------------------------------------|
|----------------------------------------------|
|----------------------------------------------|
|----------------------------------------------|
|
|  ~~~~~~~~~~~           ~~~~~~~~~~~~
|  Q      +S   S  S  S  +Q       +S   S  E
|----------------------------------------------|
|-15-----(15)----15-18-(18)-----(18)-17-18-----|
|-------------17-------------------------------|
|----------------------------------------------|
|----------------------------------------------|
|----------------------------------------------|


  B7                   D                Em
   E S S   E      S  S   E  S S E S S   E S S  E     S  S  E     S  S   E      S  S
|--2-2-2---2------2--2---2--2-2-2-2-2-|-0-0-0--0-----0--0--0-----0--0---0------0--0-|
|--0-0-0---0------0--0---3--3-3-3-3-3-|-0-0-0--0-----0--0--0-----0--0---0------0--0-|
|--2-2-2---2------2--2---2--2-2-2-2-2-|-0-0-0--0-----0--0--0-----0--0---0------0--0-|
|--1-1-1---1------1--1---0--0-0-0-0-0-|-2-2-2--2-----2--2--2-----2--2---2------2--2-|
|--2-2-2---2------2--2----------------|-2-2-2--2-----2--2--2-----2--2---2------2--2-|
|-------------------------------------|-0-0-0--0-----0--0--0-----0--0---0------0--0-|
|
|  ~~~~~~~~~~~           ~~~~
|  Q      +S   S  S  S  +H              Q      S  S  S  S  S  S  S  S  +S   S  S  S
|-19-----(19)-19-19-22-(22)-----------|---------------------------------------------|
|-------------------------------------|-------20-20-20-20-20-20-20-19-(19)-17-17-19-|
|-------------------------------------|---------------------------------------------|
|-------------------------------------|---------------------------------------------|
|-------------------------------------|---------------------------------------------|
|-------------------------------------|---------------------------------------------|
|
|  ~~                    ~~~~
|  Q      +S   S  S  S  +H              Q      S  S  S  S  S  S  S  S  +S   S  S  S
|-------------------14-(14)-----------|---------------------------------------------|
|-15-----(15)-13-15-------------------|---------------------------------------------|
|-------------------------------------|-------16-16-16-16-16-16-16-14-(14)-12-12-14-|
|-------------------------------------|---------------------------------------------|
|-------------------------------------|---------------------------------------------|
|-------------------------------------|---------------------------------------------|


  C
  E S S  E     S   S        E        S  S   E      S  S
|-0-0-0--0-----0---0--------0--------0--0---0------0--0---|
|-1-1-1--1-----1---1--------1--------1--1---1------1--1---|
|-0-0-0--0-----0---0--------0--------0--0---0------0--0---|
|-2-2-2--2-----2---2--------2--------2--2---2------2--2---|
|-3-3-3--3-----3---3--------3--------3--3---3------3--3---|
|---------------------------------------------------------|
|
| Q      S  S  S  +S       +S   +S   S  S  +S   S  S  S
|---------------------------------------------------------|
|-------20-20-20-(20)b22==(20)r(20)-20-19-(19)-20-20-20---|
|---------------------------------------------------------|
|---------------------------------------------------------|
|---------------------------------------------------------|
|---------------------------------------------------------|
|
| Q      S  S  S  +S       +S   +S   S  S  +S   S  S  S
|---------------------------------------------------------|
|---------------------------------------------------------|
|-------17-17-17-(17)b19==(17)r(17)-17-16-(16)-17-17-17---|
|---------------------------------------------------------|
|---------------------------------------------------------|
|---------------------------------------------------------|


  Am                   C
   E S S   E      S  S   E  S S   E      S S
|--0-0-0---0------0--0---0--0-0---0------0-0-|
|--1-1-1---1------1--1---1--1-1---1------1-1-|
|--2-2-2---2------2--2---0--0-0---0------0-0-|
|--2-2-2---2------2--2---2--2-2---2------2-2-|
|--0-0-0---0------0--0---3--3-3---3------3-3-|
|--------------------------------------------|
|
|  ~~~~~~~~~~~           ~~~~~~~~~~~~
|  Q      +S   S  S  S  +Q       +S   S  E
|-17-----(17)----17-20-(20)-----(20)-19-20---|
|-------------20-----------------------------|
|--------------------------------------------|
|--------------------------------------------|
|--------------------------------------------|
|--------------------------------------------|
|
|  ~~~~~~~~~~~           ~~~~
|  Q      +S   S  S  S  +Q       +S   S  E
|--------------------------------------------|
|-15-----(15)----15-17-(17)-----(17)-15-17---|
|-------------17-----------------------------|
|--------------------------------------------|
|--------------------------------------------|
|--------------------------------------------|


  B7                   D                Em
   E S S   E      S  S   E  S S E S S    E       S S E S S   E   S  S  E     S  S
|--2-2-2---2------2--2---2--2-2-2-2-2-|--0-------0-0-0-0-0---0---0--0--0-----0--0--|
|--0-0-0---0------0--0---3--3-3-3-3-3-|--0-------0-0-0-0-0---0---0--0--0-----0--0--|
|--2-2-2---2------2--2---2--2-2-2-2-2-|--0-------0-0-0-0-0---0---0--0--0-----0--0--|
|--1-1-1---1------1--1---0--0-0-0-0-0-|--2-------2-2-2-2-2---2---2--2--2-----2--2--|
|--2-2-2---2------2--2----------------|--2-------2-2-2-2-2---2---2--2--2-----2--2--|
|-------------------------------------|--0-------0-0-0-0-0---0---0--0--0-----0--0--|
|
|  ~~~~~~~~~~~       ~~~~~~~
|  Q      +S   S  S  S  +H               H                  +E   S  S  S  S  S  S
|-19-----(19)-19-19-22-(22)-----------|-------------------------------15-17-15-17--|
|-------------------------------------|-17pb19r============(17)-15-17--------------|
|-------------------------------------|--------------------------------------------|
|-------------------------------------|--------------------------------------------|
|-------------------------------------|--------------------------------------------|
|-------------------------------------|--------------------------------------------|
|
|  ~~~~~~~~~~~       ~~~~~~~
|  Q      +S   S  S  S  +H               S     S S S H                 Q
|-------------------14-(14)-----------|--------------------------------------------|
|-15-----(15)-15-15-------------------|--------------------------------------------|
|-------------------------------------|--------------------------------------------|
|-------------------------------------|--------------2-----------------2-----------|
|-------------------------------------|--------------2-----------------2-----------|
|-------------------------------------|--0-----0-0-0-0-----------------0-----------|


  C                                       Am                    C
   E     S S   E  S S E S S  E     S  S    E       S  S  E  S S   E   S  S  E     S S
|--0-----0-0---0--0-0-0-0-0--0-----0--0-|--0-------0--0--0--0-0---0---0--0--0-----0-0-|
|--1-----1-1---1--1-1-1-1-1--1-----1--1-|--1-------1--1--1--1-1---1---1--1--1-----1-1-|
|--0-----0-0---0--0-0-0-0-0--0-----0--0-|--2-------2--2--2--2-2---0---0--0--0-----0-0-|
|--2-----2-2---2--2-2-2-2-2--2-----2--2-|--2-------2--2--2--2-2---2---2--2--2-----2-2-|
|--3-----3-3---3--3-3-3-3-3--3-----3--3-|--0-------0--0--0--0-0---3---3--3--3-----3-3-|
|---------------------------------------|---------------------------------------------|
|
|              ~~~~                                      ~~~~~~~~~~~~
|  Q          +H             S  S  S  S    E      +E     Q       +E   S  S  S  S  E
|-17pb19r====(17)--------------15-17-15-|-17pb19r(17)----------------------15-17-15---|
|---------------------------17----------|---------------17------(17)-15-17------------|
|---------------------------------------|---------------------------------------------|
|---------------------------------------|---------------------------------------------|
|---------------------------------------|---------------------------------------------|
|---------------------------------------|---------------------------------------------|
|
|  Q           H             Q             Q             E.   S  +Q         Q
|---------------------------------------|---------------------------------------------|
|---------------------------------------|---------------------------------------------|
|--5-----------5-------------5----------|--2-------------2----2--(2)--------2---------|
|--5-----------5-------------5----------|--2-------------2----2--(2)--------2---------|
|--3-----------3-------------3----------|--0-------------0----0--(0)--------0---------|
|---------------------------------------|---------------------------------------------|


  B7                             D
   E         S  S   E      S  S   E         S  S   E      S  S
|--2---------2--2---2------2--2---2---------2--2---2------2--2--|
|--0---------0--0---0------0--0---3---------3--3---3------3--3--|
|--2---------2--2---2------2--2---2---------2--2---2------2--2--|
|--1---------1--1---1------1--1---0---------0--0---0------0--0--|
|--2---------2--2---2------2--2---------------------------------|
|---------------------------------------------------------------|
|
|  S      S  S  S  +S   S  S  S   S      S  S  S  +S   S  S  S
|-17b19==17-17-17-(17)-17-17-17r-17b19==17-17-17-(17)-17-17-17r-|
|---------------------------------------------------------------|
|---------------------------------------------------------------|
|---------------------------------------------------------------|
|---------------------------------------------------------------|
|---------------------------------------------------------------|
|
|  S      S  S  S   E.        S  +Q                Q
|---------------------------------------------------------------|
|---------------------------------------------------------------|
|-----------------------------7--(7)---------------7------------|
|-------------------7---------7--(7)---------------7------------|
|-------------------9---------5--(5)---------------5------------|
|--7------7--7--7---7-------------------------------------------|


  Em                                                  C
   E         S  S   E      S  S   E     S  S  E S S    E    S S  E      S  S  E         S  S   E      S  S
|--0---------0--0---0------0--0---0-----0--0--0-0-0-|--0----0-0--0------0--0--0---------0--0---0------0--0--|
|--0---------0--0---0------0--0---0-----0--0--0-0-0-|--1----1-1--1------1--1--1---------1--1---1------1--1--|
|--0---------0--0---0------0--0---0-----0--0--0-0-0-|--0----0-0--0------0--0--0---------0--0---0------0--0--|
|--2---------2--2---2------2--2---2-----2--2--2-2-2-|--2----2-2--2------2--2--2---------2--2---2------2--2--|
|--2---------2--2---2------2--2---2-----2--2--2-2-2-|--3----3-3--3------3--3--3---------3--3---3------3--3--|
|--0---------0--0---0------0--0---0-----0--0--0-0-0-|-------------------------------------------------------|
|
|                                             ~~
|  S      S  S  S  +S   S  S  S   S  S  S  S  Q        Q         E      E     S      S  S  S  +S   S  S  S
|---------------------------------------------------|-22b24-----22b24==22r---22b24==22-22-22-(22)-22-22-22r-|
|--------------------------------17-19-20-20-22-----|-------------------------------------------------------|
|-19b21==19-19-19-(19)-19-19-19r--------------------|-------------------------------------------------------|
|---------------------------------------------------|-------------------------------------------------------|
|---------------------------------------------------|-------------------------------------------------------|
|---------------------------------------------------|-------------------------------------------------------|
|
|  S      S  S  S   Q             Q           Q        Q         E.        S +Q                Q
|---------------------------------------------------|-------------------------------------------------------|
|---------------------------------------------------|-------------------------------------------------------|
|---------------------------------------------------|--5---------5---------5-(5)---------------5------------|
|-------------------2-------------2-----------2-----|--5---------5---------5-(5)---------------5------------|
|-------------------2-------------2-----------2-----|--3---------3---------3-(3)---------------3------------|
|--0------0--0--0---0-------------0-----------0-----|-------------------------------------------------------|


  Am                             C
   E         S  S  E        S  S   E      S   S   E       S   S
|--0---------0--0--0--------0--0---0------0---0---0-------0---0---|
|--1---------1--1--1--------1--1---1------1---1---1-------1---1---|
|--2---------2--2--2--------2--2---0------0---0---0-------0---0---|
|--2---------2--2--2--------2--2---2------2---2---2-------2---2---|
|--0---------0--0--0--------0--0---3------3---3---3-------3---3---|
|-----------------------------------------------------------------|
|
|  S      S  S  S  S   +S   S  S  +S   S  S  +S   S  +S   S  +S
|-22b24==22-22-22-22--(22)-22-22-(22)-22-22-(22)-22-(22)-22-(22)r-|
|-----------------------------------------------------------------|
|-----------------------------------------------------------------|
|-----------------------------------------------------------------|
|-----------------------------------------------------------------|
|-----------------------------------------------------------------|
|
|  Q               E.          S  +Q              Q
|-----------------------------------------------------------------|
|-----------------------------------------------------------------|
|------------------------------5--(5)-------------5---------------|
|--7---------------7-----------5--(5)-------------5---------------|
|--7---------------7-----------3--(3)-------------3---------------|
|--5---------------5----------------------------------------------|


                                            Chorus
  B7                                         Em
   S    S S S  E.   S +S  E   S E   E        E S S E S S E S S E S S
|--2----2-2-2--2----2-(2)-2---2-2---2----||--0-0-0-0-0-0-0-0-0-0-0-0-|
|--0----0-0-0--0----3-(3)-3---3-3---3----||o-0-0-0-0-0-0-0-0-0-0-0-0-|
|--2----2-2-2--2----2-(2)-2---2-2---2----||--0-0-0-0-0-0-0-0-0-0-0-0-|
|--1----1-1-1--1----0-(0)-0---0-0---0----||--2-2-2-2-2-2-2-2-2-2-2-2-|
|--2----2-2-2--2-------------------------||o-2-2-2-2-2-2-2-2-2-2-2-2-|
|----------------------------------------||--0-0-0-0-0-0-0-0-0-0-0-0-|
|
|  Q           Q       S  S S S S S S S      Q     H           Q
|-22b26-------22b26----------------------||--------------------------|
|----------------------------------------||o-------------------------|
|----------------------------------------||--------------------------|
|----------------------------------------||--------2-----------2-----|
|----------------------xs=xsxsxsxsxsxsx\-||o-------2-----------2-----|
|----------------------xs=xsxsxsxsxsxsx\-||--0-----0-----------0-----|
|
|  S    S S S  E.   S +S  E   S E   E        Q     H           Q
|----------------------------------------||--------------------------|
|----------------------------------------||o-------------------------|
|-------------------7-(7)-7---7-7---7----||--------------------------|
|--7----7-7-7--7----7-(7)-7---7-7---7----||--------2-----------2-----|
|--9----9-9-9--9----5-(5)-5---5-5---5----||o-------2-----------2-----|
|--7----7-7-7--7-------------------------||--0-----0-----------0-----|


  C                         D
  E S S E S S E S S E S S   E S S E S S E S S E S S
|-0-0-0-0-0-0-0-0-0-0-0-0-|-2-2-2-2-2-2-2-2-2-2-2-2--|
|-1-1-1-1-1-1-1-1-1-1-1-1-|-3-3-3-3-3-3-3-3-3-3-3-3--|
|-0-0-0-0-0-0-0-0-0-0-0-0-|-2-2-2-2-2-2-2-2-2-2-2-2--|
|-2-2-2-2-2-2-2-2-2-2-2-2-|-0-0-0-0-0-0-0-0-0-0-0-0--|
|-3-3-3-3-3-3-3-3-3-3-3-3-|--------------------------|
|-------------------------|--------------------------|
|
| Q     H           Q       Q     Q     E E   Q
|-------------------------|-2-----2-----0-2---3------|
|-------------------------|-3-----3-----3-3---3------|
|-5-----5-----------5-----|-2-----2------------------|
|-5-----5-----------5-----|-0------------------------|
|-3-----3-----------3-----|--------------------------|
|-------------------------|--------------------------|
|
| Q     H           Q       Q     Q     E E   Q
|-------------------------|-2-----2-----0-2---3------|
|-------------------------|-3-----3-----3-3---3------|
|-5-----5-----------5-----|-2-----2------------------|
|-5-----5-----------5-----|-0------------------------|
|-3-----3-----------3-----|--------------------------|
|-------------------------|--------------------------|


                           1.
  G                 D/F#    Em
  E S S E S S E S S E S S   E S S E S S E S S E S S
|-3-3-3-3-3-3-3-3-3-2-2-2-|-0-0-0-0-0-0-0-0-0-0-0-0-|
|-0-0-0-0-0-0-0-0-0-3-3-3-|-0-0-0-0-0-0-0-0-0-0-0-0-|
|-0-0-0-0-0-0-0-0-0-2-2-2-|-0-0-0-0-0-0-0-0-0-0-0-0-|
|-0-0-0-0-0-0-0-0-0-0-0-0-|-2-2-2-2-2-2-2-2-2-2-2-2-|
|-2-2-2-2-2-2-2-2-2-------|-2-2-2-2-2-2-2-2-2-2-2-2-|
|-3-3-3-3-3-3-3-3-3-2-2-2-|-0-0-0-0-0-0-0-0-0-0-0-0-|
|
| Gtrs II, III
| H           Q     Q       Q     H           Q
|-------------------------|-------------------------|
|-------------------------|-------------------------|
|-------------------------|-------------------------|
|-5-----------------------|-------2-----------2-----|
|-5-----------------------|-------2-----------2-----|
|-3-----------3-----2-----|-0-----0-----------0-----|


  C                         Am
  E S S E S S E S S E S S   E S S E S S E S S E S S
|-0-0-0-0-0-0-0-0-0-0-0-0-|-0-0-0-0-0-0-0-0-0-0-0-0----|
|-1-1-1-1-1-1-1-1-1-1-1-1-|-1-1-1-1-1-1-1-1-1-1-1-1----|
|-0-0-0-0-0-0-0-0-0-0-0-0-|-2-2-2-2-2-2-2-2-2-2-2-2----|
|-2-2-2-2-2-2-2-2-2-2-2-2-|-2-2-2-2-2-2-2-2-2-2-2-2----|
|-3-3-3-3-3-3-3-3-3-3-3-3-|-0-0-0-0-0-0-0-0-0-0-0-0----|
|-------------------------|----------------------------|
|
| H           Q     Q       Q     Q     Q     Q
|-------------------------|----------------------------|
|-------------------------|----------------------------|
|-5-----------5-----5-----|-------2-----2-----2--------|
|-5-----------5-----5-----|-------2-----2-----2--------|
|-3-----------3-----3-----|-0-----0-----0-----0--------|
|-------------------------|----------------------------|


                             2.
  D                           Em
  E S S E S S E S S E S S     E S S E S S E S S E S S
|-2-2-2-2-2-2-2-2-2-2-2-2--||-0-0-0-0-0-0-0-0-0-0-0-0-|
|-3-3-3-3-3-3-3-3-3-3-3-3-o||-0-0-0-0-0-0-0-0-0-0-0-0-|
|-2-2-2-2-2-2-2-2-2-2-2-2--||-0-0-0-0-0-0-0-0-0-0-0-0-|
|-0-0-0-0-0-0-0-0-0-0-0-0--||-2-2-2-2-2-2-2-2-2-2-2-2-|
|-------------------------o||-2-2-2-2-2-2-2-2-2-2-2-2-|
|--------------------------||-0-0-0-0-0-0-0-0-0-0-0-0-|
|
| E E   E E   E E   E E       Q     H           Q
|--------------------------||-------------------------|
|-------------------------o||-------------------------|
|-7-7---7-7---7-7---7-7----||-------------------------|
|-7-7---7-7---7-7---7-7----||-------2-----------2-----|
|-5-5---5-5---5-5---5-5---o||-------2-----------2-----|
|--------------------------||-0-----0-----------0-----|


  C                         Am
  E S S E S S E S S E S S   E S S E S S E S S E S S
|-0-0-0-0-0-0-0-0-0-0-0-0-|-0-0-0-0-0-0-0-0-0-0-0-0----|
|-1-1-1-1-1-1-1-1-1-1-1-1-|-1-1-1-1-1-1-1-1-1-1-1-1----|
|-0-0-0-0-0-0-0-0-0-0-0-0-|-2-2-2-2-2-2-2-2-2-2-2-2----|
|-2-2-2-2-2-2-2-2-2-2-2-2-|-2-2-2-2-2-2-2-2-2-2-2-2----|
|-3-3-3-3-3-3-3-3-3-3-3-3-|-0-0-0-0-0-0-0-0-0-0-0-0----|
|-------------------------|----------------------------|
|
| Q     H           Q       Q     Q     Q     Q
|-------------------------|----------------------------|
|-------------------------|----------------------------|
|-5-----5-----------5-----|-------2-----2-----2--------|
|-5-----5-----------5-----|-------2-----2-----2--------|
|-3-----3-----------3-----|-0-----0-----0-----0--------|
|-------------------------|----------------------------|


  D           Dsus4 D
  E S S E S S E S S E S S
|-2-2-2-2-2-2-3-3-3-2-2-2-||
|-3-3-3-3-3-3-3-3-3-3-3-3-||
|-2-2-2-2-2-2-2-2-2-2-2-2-||
|-0-0-0-0-0-0-0-0-0-0-0-0-||
|-------------------------||
|-------------------------||
|
| H           Q     Q
|-------------------------||
|-------------8-----7-----||
|-7-----------7-----7-----||
|-7-----------7-----7-----||
|-5-----------------------||
|-------------------------||


 Outro
  G                            C
    E  S S E S S E S S E S S   E S S E S S E S S E S S
|---3--3-3-3-3-3-3-3-3-3-3-3-|-3-3-3-3-3-3-3-3-3-3-3-3--|
|---0--0-0-0-0-0-0-0-0-0-0-0-|-1-1-1-1-1-1-1-1-1-1-1-1--|
|---0--0-0-0-0-0-0-0-0-0-0-0-|-0-0-0-0-0-0-0-0-0-0-0-0--|
|---0--0-0-0-0-0-0-0-0-0-0-0-|-2-2-2-2-2-2-2-2-2-2-2-2--|
|---2--2-2-2-2-2-2-2-2-2-2-2-|-3-3-3-3-3-3-3-3-3-3-3-3--|
|---3--3-3-3-3-3-3-3-3-3-3-3-|--------------------------|
|
|   ~~~~
|   W                          W
|----------------------------|--------------------------|
|----------------------------|--------------------------|
|-<12>-----------------------|--------------------------|
|----------------------------|--------------------------|
|----------------------------|--------------------------|
|----------------------------|--------------------------|


  H.=H
  D                         G
  Gtr I
  E S S E S S E S S E S S   W          +W
|-2-2-2-2-2-2-2-2-2-2-2-0-|-3--------|-(3)----*|
|-3-3-3-3-3-3-3-3-3-3-3-0-|-0--------|-(0)----*|
|-2-2-2-2-2-2-2-2-2-2-2-0-|-0--------|-(0)----*|
|-0-0-0-0-0-0-0-0-0-0-0-0-|-0--------|-(0)----*|
|-------------------------|-2--------|-(2)----*|
|-------------------------|-3--------|-(3)----*|


Duration Legend
---------------
W - whole; H - half; Q - quarter; E - 8th; S - 16th; T - 32nd; X - 64th; a - acciaccatura
+ - note tied to previous; . - note dotted; .. - note double dotted
Uncapitalized letters represent notes that are staccato (1/2 duration)
Irregular groupings are notated above the duration line
Duration letters will always appear directly above the note/fret number it represents the
duration for.  Duration letters with no fret number below them represent rests.  Multi-
bar rests are notated in the form Wxn, where n is the number of bars to rest for.  Low
melody durations appear below the staff

Tablature Legend
----------------
 h   - hammer-on
 p   - pull-off
 b   - bend
 pb  - pre-bend
 r   - bend release (if no number after the r, then release immediately)
 /\  - slide into or out of (from/to "nowhere")
 s   - legato slide
 S   - shift slide
  - natural harmonic
[n]  - artificial harmonic
n(n) - tapped harmonic
 ~   - vibrato
 tr  - trill
 T   - tap
 TP  - trem. picking
 PM  - palm muting
\n/  - tremolo bar dip; n = amount to dip
 \n  - tremolo bar down
 n/  - tremolo bar up
/n\  - tremolo bar inverted dip
 =   - hold bend; also acts as connecting device for hammers/pulls
 <>  - volume swell (louder/softer)
 x   - on rhythm slash represents muted slash
 o   - on rhythm slash represents single note slash

Misc Legend
-----------
 |  - bar
||  - double bar
||o - repeat start
o|| - repeat end
*|  - double bar (ending)
 :  - bar (freetime)
 $  - Segno
 &  - Coda
Tempo markers -  = BPM(8/16=s8/s16), where s8 = swing 8ths, s16 = swing 16ths





Heard it from a friend who
Heard it from a friend who
Heard it from another you been messin' around
They say you got a boy friend
You're out late every weekend
They're talkin' about you and it's bringin' me down

But I know the neighborhood
And talk is cheap when the story is good
And the tales grow taller on down the line
But I'm telling you, babe
That I don't think it's true, babe
And even if it is keep this in mind

{refrain}

You take it on the run baby
If that's the way you want it baby
Then I don't want you around
I don't believe it
Not for a minute
You're under the gun so you take it on the run

You're thinking up your white lies
You're putting on your bedroom eyes
You say you're coming home but you won't say when
But I can feel it coming
If you leave tonight keep running
And you need never look back again

{refrain x 3}

Heard it from a friend who
Heard it from a friend who
Heard it from another you been messin' around

            
            
Suggest correction
Creating personal tab
Creating personal tab
You can edit any tab online and save it as your Personal.

You can edit, replace or remove any tab part or add personal notes – all changes will be seen only by you.

Personal tabs can be accessed anytime from any device, even offline.
Learn more »
Give kudos to tab author, rate the tab!
1 2 3 4 5
comments
print report bad tab
guest
You may want to rate the tab now too:
select rating
Wanna post a correction for this tab? Suggest correction