Oops, an error
Loading. Please wait.

Un Ideal chords

24 views 1 this week
no commentswrite comment
1 2 3 4 5
3 more votes to show rating
add to favorites
×
Save as Personal and add changes to this tab that will be seen only by you. Learn more ›
×
You can save this tab as Personal to edit and correct it or add notes. All changes will be seen only by you. Learn more »
launch autoscroll
font size
0
reset
transpose
0
reset
display chords
guitar tuner
edit
Autoscroll
slow
fast
+/-
esc
set tempo
stop
Strumming
There is no strumming pattern for this song yet. and get +5 IQ
Intr.
          C                /  E   /     Am     /  F
E -----------------------------------------------------1--
B ----1---1---1---1---1---1---0---0---1---0h1------1---1--
G ---0-0-0-0-0-0-0-0-0-0-0-0-0-0-0-0-2-2-2----2---2-2--2--
D -----------------------------------------------------3--
A --3---3---3---3---3---3---2---2---0---0--------3-----3--
E -----------------------------------------------------1--

   C                     E
Amante de la inspiración, incomprendido sooñador

  Am                                  F
Absurdo en esta situación que as elegido

            C                          E
Si a lo que quisieras llegar le das la espalda así sin más

   Am                           F
Renunciando a hacer tus sueños realidad

       C                         E
A lo mejor es lo más fácil aunque no sea lo ideal

        Am                    F
Cambiar ambiciones por comodidad

       C                    E
Anárquico de corazón cautivo de la indesicion

     Am                       F
Resignado a no salirte del montón

C                 E   Am                        F
   Y en tu habitación, meditaras si todo es un error

C                    E          Am                         F
   Si sabes que al final, lo que quieres alcanzar es tu verdad

C E Am F x2
hohohohoho

Solo guitarra
E -------------------------------------------------------
B ---------9-7-6--------9-7-6--------8-6-5-5h6-5--3-3-5---
G -555-55--------666-66-------555-55---------------5---5-
D -------------------------------------------------------

E -------------------------------------------------------
B ---------9-7-6--------9-7-6--------8-5-4-4h5-4--3-3-5---
G -555-55--------666-66-------555-55---------------5---5
D -------------------------------------------------------

se repite
A lo mejor es lo más fácil aunque no sea lo ideal

Cambiar ambiciones por comodidad

Anárquico de corazón cautivo de la indesicion

Resignado a no salirte del montón

Y en tu habitación, meditaras si todo es un error

Si sabes que al final, lo que quieres alcanzar es tu verdad

C E Am F

Hasta el final

Espero y le aya gustado como saque la canción.
y para los que no la han oído viene en el primer disco de 100% papel de wc,
o en el álbum de ellos que se llama (victima del tiempo)
un saludo a la banda y si quieren aclaraciones arriba esta mi correo..
igual si alguien quiere intercambiar rolas lo podemos hacer.
viva tierra y libertad , viva la anarquia x q yo soy un (ac)
anarquico de corazon

            
            
Suggest correction
Creating personal tab
Creating personal tab
You can edit any tab online and save it as your Personal.

You can edit, replace or remove any tab part or add personal notes – all changes will be seen only by you.

Personal tabs can be accessed anytime from any device, even offline.
Learn more »
Give kudos to tab author, rate the tab!
1 2 3 4 5
comments
print report bad tab
guest
Wanna post a correction for this tab? Suggest correction