Oops, an error
Loading. Please wait.

Bartimeo bass

by Rescate
81 views 3 this week
no commentswrite comment
1 2 3 4 5
3 more votes to show rating
add to favorites
×
Save as Personal and add changes to this tab that will be seen only by you. Learn more ›
×
You can save this tab as Personal to edit and correct it or add notes. All changes will be seen only by you. Learn more »
launch autoscroll
font size
0
reset
guitar tuner
edit
Autoscroll
slow
fast
+/-
esc
set tempo
stop
Bueno, la cancion es por C Comienza con el punteo (del trombón):

E|----3--------5-------7-------3---------------
A|-------3-------------------------------------
D|----------2------3------5--------------------
G|---------------------------------------------

X2 (en la segunda vez, la ultima nota no se hace (sol), y se esperan
4 tiempos entre la primera y la segunda vez)

Bartimeo ciego por ver.....
E|----3----------1--------------------------
A|--3---3--5--7-----3---5-------------------
D|------------------------3-3---5-5---------
G|------------------------------------------

esta figurase repite varias veces, (9 si no me equivoco)

luego (de esta parte no estoy seguro, pero apenas la
 saque bien la modifico XD)


No hubo dudas..
E|---0--------1-----------3---3---3---------
A|-----2---2----3----3--3---3---3-----------
D|-------2--------3-------------------------
G|------------------------------------------

X2


Solo la fé..
E|--5---5----1----1-----3----3--------------
A|----7---7----3-----3-----5----5---3-------
D|------------------------------------------
G|------------------------------------------


luego el punteo:

E|----3--------5-------7-------3---------------
A|-------3-------------------------------------
D|----------2------3------5--------------------
G|---------------------------------------------


y el coro: (lo mismo que al principio)

deja que te toque...
E|----3----------1--------------------------
A|--3---3--5--7-----3---5-------------------
D|------------------------3-3---5-5---------
G|------------------------------------------


2ªestrofa

si la vida te pasa...

E|---0--------1-----------3---3---3---------
A|-----2---2----3----3--3---3---3-----------
D|-------2--------3-------------------------
G|------------------------------------------

x2

deajalo a Dios...
E|--5---5----1----1-----3----3--------------
A|----7---7----3-----3-----5----5---3-------
D|------------------------------------------
G|------------------------------------------

en esta parte quedas en silencio, mientras canta
"deja que te pinte él"
luego, el la parte. oh oh oh oh oh oh oh oh...!
comienza marcando C, F, G (siguiendo esa secuencia)

y luego een el corte "!ah"
comienza la secuencia nuevamente
E|----3----------1--------------------------
A|--3---3--5--7-----3---5-------------------
D|------------------------3-3---5-5---------
G|------------------------------------------

y asi hasta el final.

bueno espero les guste.. saludos a la iglesia
Gedeón Santiago de chile...
y Que Dios les bendiga
!!BLESS

            
            
Suggest correction
Creating personal tab
Creating personal tab
You can edit any tab online and save it as your Personal.

You can edit, replace or remove any tab part or add personal notes – all changes will be seen only by you.

Personal tabs can be accessed anytime from any device, even offline.
Learn more »
Give kudos to tab author, rate the tab!
1 2 3 4 5
comments
print report bad tab
guest
Wanna post a correction for this tab? Suggest correction