Oops, an error
Loading. Please wait.

Llena De Sol tab

by Rescate
51 views 1 this week
no commentswrite comment
1 2 3 4 5
3 more votes to show rating
add to favorites
×
Save as Personal and add changes to this tab that will be seen only by you. Learn more ›
×
You can save this tab as Personal to edit and correct it or add notes. All changes will be seen only by you. Learn more »
launch autoscroll
font size
0
reset
how to read this tab
guitar tuner
edit
Autoscroll
slow
fast
+/-
esc
set tempo
stop
heber david bang_234@
**********************************************************************
e-----------------------------------------------------------
a-----------------------------------------------------------
d---------------5-3-5------------------5-3-5----------------
g-4-5-7-5-4-5-4----------4-5-7-5-4-5-4-------4-5-7-------7-5
b--------------------------------------------------8-6-5----
e-----------------------------------------------------------

e-----------------------------------------------------------
a-----------------------------------------------------------
d---------------5-3-5---------------------------------------
g-4-5-7-5-4-5-4-------4-5-7-------7-5-----------------------
b---------------------------8-6-5---------------------------
e-----------------------------------------------------------

SOL
    Sobran las palabras, sobran las espinas,
                    FA             DO
Cuando son tus ojos llenos de sol, llenos de sol.
SOL
    Puede ser de noche, puede haber corridas.
                    FA             DO
Pero están tus ojos llenos de sol, llenos de sol.
RE                   LAm
   Cuna de campeones,   que no tienen gloria.
RE                  LAm        DO           SOL
   Por tener razones    que no saben donde ir.

coro:(se repite todo el coro)
e-----------------------------------------------------------
a-----------------------------------------------------------
d---------------5-3-5---------------------------------------
g-4-5-7-5-4-5-4-------4-5-7-------7-5-----------------------
b---------------------------8-6-5---------------------------
e-----------------------------------------------------------

SOL
    Fue una noche larga, más de una semana.
                    FA             DO
Y encontré tus ojos llenos de sol, llenos de sol.
RE                    LAm
   Cuna de campeones,     que no tienen gloria.
RE                   LAm
   Por tener razones     de cambiar la historia.
RE                   LAm      DO         SOL
   Por perder cordura    y saber a donde ir.

e-----------------------------------------------------------
a-----------------------------------------------------------
d---------------5-3-5---------------------------------------
g-4-5-7-5-4-5-4-------4-5-7-------7-5-----------------------
b---------------------------8-6-5---------------------------
e-----------------------------------------------------------

SOL                                          FA
Esta vez esa voz que me nombra, Esta vez no siento el dolor.
SOL                            FA            DO
Esta vez tu mirada me asombra. Llena de sol. Llena de sol.
SOL                                          FA
Esta vez esa voz que me nombra, Esta vez no siento el dolor.
SOL                            FA    DO          FA   DO       SOL
Esta vez tu mirada me asombra.    Quiero tu amor.  Lleno de Sol.

            
            
Suggest correction
Creating personal tab
Creating personal tab
You can edit any tab online and save it as your Personal.

You can edit, replace or remove any tab part or add personal notes – all changes will be seen only by you.

Personal tabs can be accessed anytime from any device, even offline.
Learn more »
Give kudos to tab author, rate the tab!
1 2 3 4 5
comments
print report bad tab
guest
Wanna post a correction for this tab? Suggest correction