Oops, an error
Loading. Please wait.

Otra Oportunidad bass

by Rescate
93 views 3 this week
no commentswrite comment
1 2 3 4 5
3 more votes to show rating
add to favorites
×
Save as Personal and add changes to this tab that will be seen only by you. Learn more ›
×
You can save this tab as Personal to edit and correct it or add notes. All changes will be seen only by you. Learn more »
launch autoscroll
font size
0
reset
guitar tuner
edit
Autoscroll
slow
fast
+/-
esc
set tempo
stop
Otra oportunidad (BASS)

SI LOS NUMEROS TIENEN UN PUNTO AL COSTADO
DERECHO ES PORQ ESA PARTE ES UN POCO MAS RAPÍDO

G)-----------------------------------------------------
D)-------------3--------------5.3.---------------------
A)-5-5-5-5-5-5---5-5-5-5-5-5---------------------------
E)-----------------------------------------------------

BRIDGE

G)-------------------
D)------5--3--5--3---
A)--3--------------3-
E)-------------------
   Otra oportunidad,
                             BIS
G)--------------3.-5.---
D)------5-3-5-----------
A)--3-------------------
E)----------------------
   otra oportunidad.


G)---------------------------3.-5.--
D)---5-3-5-3---------5-3-5-3--------
A)-3---------3-----3----------------
E)----------------------------------
  Pega en el pecho, bala de cañon.

G)---------------------------3.-5.--
D)---5-3-5-3---------5-3-5-3--------
A)-3---------3-----3----------------
E)----------------------------------
  Pocos indicios de resucitar.

G)---------------------------3.-5.--
D)---5-3-5-3---------5-3-5-3--------
A)-3---------3-----3----------------
E)----------------------------------
  Mira hacia el cielo buscando razón.

G)---------------------------3.-5.--
D)---5-3-5-3---------5-3-5-3--------
A)-3---------3-----3----------------
E)----------------------------------
  Solo en sus ojos encuentra piedad.

BRIDGE

G)---------------------------3.-5.--
D)---5-3-5-3---------5-3-5-3--------
A)-3---------3-----3----------------
E)----------------------------------
  Tener la copa sin ser el campeón.

G)---------------------------3.-5.--
D)---5-3-5-3---------5-3-5-3--------
A)-3---------3-----3----------------
E)----------------------------------
  Ser el primero llegando después.

G)---------------------------5.-7.--
D)---7-5-7-5---------7-5-7-5--------
A)-5---------5-----5----------------
E)----------------------------------
  Rey en la selva sin ser el león.

G)---------------------------3.-5.--
D)---5-3-5-3---------5-3-5-3--------
A)-3---------3-----3----------------
E)----------------------------------
  La decisión de morir o nacer.

BRIDGE

cRORUS

G)---------------------------
D)---------------------------
A)-------------------5--3----
E)-5-3--5--3--5--3-----------
  Una raza contra el viento,

G)--------------------------------------
D)--------------------------------------
A)-------------------5-------1-3-1-3-5--
E)-5-3--5--3--5--3------1---------------
  pura gracia la que siento.

G)---------------------------3.-5.--
D)---5-3-5-3---------5-3-5-3--------
A)-3---------3-----3----------------
E)----------------------------------
  Esa muchacha no tiene perdón,

G)---------------------------3.-5.--
D)---5-3-5-3---------5-3-5-3--------
A)-3---------3-----3----------------
E)----------------------------------
  dice la gente que la vió crecer.

G)---------------------------5.-7.--
D)---7-5-7-5---------7-5-7-5--------
A)-5---------5-----5----------------
E)----------------------------------
  Tire la piedra el que nunca falló.

G)---------------------------3.-5.--
D)---5-3-5-3---------5-3-5-3--------
A)-3---------3-----3----------------
E)----------------------------------
  Vete a tu casa y vuelve a nacer.

BRIDGE

cRORUS BIS

G)--------------------------------------
D)--------------------------------------
A)---------------------3-----------1----
E)--5--------3--------------------------
  Otra oportunidad para seguir amando,

G)--------------------------------------
D)--------------------------------------
A)---------------------3-----------1----
E)--5--------3--------------------------
  otra oportunidad y no morir buscando.

G)--------------------------------------
D)--------------------------------------
A)---------------------3-----------1----
E)--5--------3--------------------------
  Otra oportunidad, no sirve merecerte.

G)--------------------------------------
D)--------------------------------------
A)---------------------3-----------1----
E)--5--------3--------------------------
  otra oportunidad solo basta tenerte.

BRIDGE

CRORUS


Dedicado al amor de mi vida Milagros Bocanegra

            
            
Suggest correction
Creating personal tab
Creating personal tab
You can edit any tab online and save it as your Personal.

You can edit, replace or remove any tab part or add personal notes – all changes will be seen only by you.

Personal tabs can be accessed anytime from any device, even offline.
Learn more »
Give kudos to tab author, rate the tab!
1 2 3 4 5
comments
print report bad tab
guest
Wanna post a correction for this tab? Suggest correction