Oops, an error
Loading. Please wait.

Todos Se Preguntan tab

by Rescate
55 views 1 this week
no commentswrite comment
1 2 3 4 5
3 more votes to show rating
add to favorites
×
Save as Personal and add changes to this tab that will be seen only by you. Learn more ›
×
You can save this tab as Personal to edit and correct it or add notes. All changes will be seen only by you. Learn more »
launch autoscroll
font size
0
reset
how to read this tab
guitar tuner
edit
Autoscroll
slow
fast
+/-
esc
set tempo
stop
Onceavo y ultimo Track del disco ¡Arriba!

Intro: Gm - Dm - A# - A

e)|----------------------------------------------|
B)|-5-3----6-5-3------3-3-3-3-3-3-5-3-2-2-2-3-5--|
G)|-----3--------2--2----------------------------|
D)|----------------------------------------------|
A)|----------------------------------------------|
E)|----------------------------------------------|

1er Verso:

      Gm
Puede ser,
          Dm
Que la historia,
   Gm                     Dm
Me quiera traicionar la memoria...
       Gm
Pero a ti,
          Dm
Quien te olvida,
    A#                         A
Por mas que me lo pidan tu presencia sigue aqui...
     Gm            Dm
Pasara, tanta gente,
   Gm                       Dm
Y rios correran bajo del puente,
         Gm           Dm
Pero a ti, quien te olvide,
    A#                        A
No sabe lo que pide cuando quiere ser feliz:

CORO:
       Gm
Y me fui, a buscar
       Dm
Una luz, en el mar
      Gm
Un amor que me quiera
      Dm
En invierno y primavera
      Gm
Defender el perdon
      Dm
Aliviar tanto dolor
    A#                     A
Y todos se preguntan como puede ser asi
        Dm - Dm - Gm - A
Este amor
e)|--------------3-------------|
B)|--6-5-3-6-5-3---6-5-3-1-0---|
G)|-------------------------2--|
D)|----------------------------|
A)|----------------------------|
E)|----------------------------|
        Dm - Dm - Gm - A
Este amor
e)|--------------3-------------|
B)|--6-5-3-6-5-3---6-5-3-1-0---|
G)|-------------------------2--|
D)|----------------------------|
A)|----------------------------|
E)|----------------------------|

Gm - Dm
laralai...

             A# - A
e)|------------------------------|
B)|---3-3-3-3-3-3-5-3-2-2-2-3-5--|
G)|-2----------------------------|
D)|------------------------------|
A)|------------------------------|
E)|------------------------------|

2do Verso:
        Gm         Dm
Pero fue, esa noche
Gm                              Dm
Cuando no hubo preguntas ni reproches
      Gm           Dm
Solo tu me convidas
   A#                   A
Un niño que la vida preparaba para mi
        Gm      Dm
Y si soy, extranjero
   Gm                          Dm
Sera camino angosto el que prefiero
        Gm            Dm
Pero a ti, no te olvido
      A#                     A
Estrella que persigo, y poder llegar al fin

CORO:
         Gm
//Y me fui, a buscar
       Dm
Una luz, en el mar
      Gm
Un amor que me quiera
      Dm
En invierno y primavera
      Gm
Defender el perdon
      Dm
Aliviar tanto dolor
    A#                     A
Y todos se preguntan como puede ser asi//
    A#                     A
Y todos se preguntan como puede ser asi

        Dm - Dm - Gm - A
Este amor
e)|--------------3-------------|
B)|--6-5-3-6-5-3---6-5-3-1-0---|
G)|-------------------------2--|
D)|----------------------------|
A)|----------------------------|
E)|----------------------------|
        Dm - Dm - Gm - A
Este amor
e)|--------------3-------------|
B)|--6-5-3-6-5-3---6-5-3-1-0---|
G)|-------------------------2--|
D)|----------------------------|
A)|----------------------------|
E)|----------------------------|
        Dm - Dm - Gm - A
Este amor
e)|--------------3-------------|
B)|--6-5-3-6-5-3---6-5-3-1-0---|
G)|-------------------------2--|
D)|----------------------------|
A)|----------------------------|
E)|----------------------------|
        Dm - Dm - Gm - A
Este amor
e)|--------------3-------------|
B)|--6-5-3-6-5-3---6-5-3-1-0---|
G)|-------------------------2--|
D)|----------------------------|
A)|----------------------------|
E)|----------------------------|

Gm - Dm
lalarai... X3


           A# - A - Dm X3 Dm
e)|--------------------------------10-|
B)|---3-3-3-3-2-2-6-5-3----10-13-10---|
G)|-2---------------------------------|
D)|-----------------------------------|
A)|-----------------------------------|
E)|-----------------------------------|

            
            
Suggest correction
Creating personal tab
Creating personal tab
You can edit any tab online and save it as your Personal.

You can edit, replace or remove any tab part or add personal notes – all changes will be seen only by you.

Personal tabs can be accessed anytime from any device, even offline.
Learn more »
Give kudos to tab author, rate the tab!
1 2 3 4 5
comments
print report bad tab
guest
Wanna post a correction for this tab? Suggest correction