Oops, an error
Loading. Please wait.

Ruido tab

by Resorte
31 views 1 this week
no commentswrite comment
1 2 3 4 5
3 more votes to show rating
add to favorites
×
Save as Personal and add changes to this tab that will be seen only by you. Learn more ›
×
You can save this tab as Personal to edit and correct it or add notes. All changes will be seen only by you. Learn more »
launch autoscroll
font size
0
reset
how to read this tab
guitar tuner
edit
Autoscroll
slow
fast
+/-
esc
set tempo
stop
ES LO MAS PRINCIPAL DE LA CANCION, NO ESTA TAN DETALLADA PORQUE
NO TENGO MI GUITARRA AQUI Y APARTE ME DIO HUEVA.  PARA TOCARLA
CON UNA BANDA DE COVERS ES SUFICIENTE.


D-----------------------------------------------------------------------
A-----------------------------------------------------------------------
F-----------------------------------------------------------------------
C-----0202--0007000008----0202--0007000008---------------
G-----0202--0007000008----0202--0007000008---------------
C-----0202--0007000008----0202--0007000008----------------
                    Palm muted


                                      VERSO
D----------------------------------------------------------------------------
A---------------------3------------------------------------------------------
F---------------------3---- X  4 -------------------------------------------
C-----020202020-------3------------------------------------------------------
G-----020202020----------------------------------------------------------
C-----020202020--------------------22222223333555555-------------


ESTE ES EL CAMBIO   AQUI HAY UN SLIDE Y LUEGO TIENEN QUE PONER ATENCION A LA
CANCION PARA AGARRAR LA DIFERENCIA DE RITMO, ES MINIMA PERO SI LA HAY
D----------------------------------------------------------------
A----------------------------------------------------------------
F-----------------------------------------------------------------
C--------3-00-0000-00--------------------------------------------
G--------3-00-0000-00--------------------------------------------
C--------3-00-0000-00-------3/-----03 00 00 0000 00-------------


EL SOLO NI LO INTENTE SACAR, SOLO CREO QUE ESTE ES EL PRINCIPIO, PUEDE SER UNA BUENA GUIA
D----------------------------------------
A-------------------9-11-11---------------
F-------------9-11--9-11-11-9--------------
C------9--11--9-11-----------------------
G------9--11-----------------------------
C----------------------------------------

LA PARTE FINAL
D-------------------------------------------------------------------------------------------
A-------------------------------------------------------------------------------------------
F-------------------------------------------------------------------------------------------
C--------355363-355353566----------3-5-3-6-3-5-3-5-5-6-6-----------------------
G--------355363 355353566----------3-5-3-6-3-5-3-5-5-6-6------------------------
C--------355363 355353566----------3-5-3-6-3-5-3-5-5-6-6------------------------


NO ES LA TRANSCRIPCION MAS DETALLADA DEL MUNDO, PERO LA BASE AHI ESTA.

            
            
Suggest correction
Creating personal tab
Creating personal tab
You can edit any tab online and save it as your Personal.

You can edit, replace or remove any tab part or add personal notes – all changes will be seen only by you.

Personal tabs can be accessed anytime from any device, even offline.
Learn more »
Give kudos to tab author, rate the tab!
1 2 3 4 5
comments
print report bad tab
guest
Wanna post a correction for this tab? Suggest correction