Oops, an error
Loading. Please wait.

Tintas tab

by Resorte
30 views 1 this week
no commentswrite comment
1 2 3 4 5
3 more votes to show rating
add to favorites
×
Save as Personal and add changes to this tab that will be seen only by you. Learn more ›
×
You can save this tab as Personal to edit and correct it or add notes. All changes will be seen only by you. Learn more »
launch autoscroll
font size
0
reset
how to read this tab
guitar tuner
edit
Autoscroll
slow
fast
+/-
esc
set tempo
stop
Ojala y les quede claro banda es la primera vez que hago una tab aqui

Las 4 Primeras partes se tocan 4 veces al principio

E|------------------------------------------|
B|------------------------------------------|
G|------------------------------------------|
D|------------------------------------------|
A|----10---10---10h11h10---8h10---10-10-----|
E|--8----8----8-----------------8-----------|

E|--------------------------------|
B|--------------------------------|
G|--------------------------------|
D|--------------------------------|
A|----11---11---13---13-----------|
E|--9----9----9----9----9h13-13---|

E|------------------------------------------|
B|------------------------------------------|
G|------------------------------------------|
D|------------------------------------------|
A|----10---10---10h11h10---8h10---10-10-----|
E|--8----8----8-----------------8-----------|

E|--------------------------------|
B|--------------------------------|
G|--------------------------------|
D|--------------------------------|
A|----11---11---8----8---6-6------|
E|--9----9----9----9---9----------|

El inter de guitarra y precoro va asi:

E|--------------------------------|
B|--------------------------------|
G|-----------------------8--------|  X8
D|-----10------------------8h10---|
A|-------8h10h11-11h10h8----------|
E|-8-8----------------------------|

El coro es asi lo tocan las veces que sean

E|--------------------------------|
B|--------------------------------|
G|--------------------------------|
D|------33333333-5555-33333333----|
A|-5-5--11111111-3333-11111111----|
E|-3-3----------------------------|

despues la cancion vuelve al principio y asi se repite solo
al ultimo se repite de nuevo el precoro y ya.

Dudas o sugerencias a tookbssplyer@

Ojala les sirva banda

ATTE. tUkItO

            
            
Suggest correction
Creating personal tab
Creating personal tab
You can edit any tab online and save it as your Personal.

You can edit, replace or remove any tab part or add personal notes – all changes will be seen only by you.

Personal tabs can be accessed anytime from any device, even offline.
Learn more »
Give kudos to tab author, rate the tab!
1 2 3 4 5
comments
print report bad tab
guest
Wanna post a correction for this tab? Suggest correction