Oops, an error
Loading. Please wait.

Deadly Lethal Ninja Assassin bass

version 1
version 1

Whole song

Interactive

by Reuben
2,018 views 9 this week
no commentswrite comment
1 2 3 4 5
1 last vote to show rating
add to favorites
×
Save as Personal and add changes to this tab that will be seen only by you. Learn more ›
×
You can save this tab as Personal to edit and correct it or add notes. All changes will be seen only by you. Learn more »
launch autoscroll
font size
0
reset
guitar tuner
edit
Autoscroll
slow
fast
+/-
esc
set tempo
stop
-------------------------------------------------------------------------------
			     Deadly Lethal Ninja Assassin - Reuben
-------------------------------------------------------------------------------

Tabbed By : Louis Richards AKA MadClownDisease
e-mail: hereticbynature@hotmail.com

Tuning: Standard (for 5-string) BEADG

One of my favourites from In Nothing We Trust and Reuben's latest single. Cracking
I am pretty much 100% certain on most of this (especially the interlude which is actually
out in the video) but some parts could be played higher than I have tabbed and still 
This song is played on a 5 string bass but if you want you can just tune down to B.

No bass until (0:24)
G|------|
D|------|
A|------|
E|------|
B|-12\--|

Verse
G|------------------------------------|
D|------------------------------------|
A|------------------------------------| x3
E|------------------------------------|
B|-0-0-0-0-7-7-7-7-10-10-10-10-5------|

G|------------------------------------|
D|------------------------------------|
A|------------------------------------|
E|------------------------------------|
B|-0-0-0-0-7-7-7-7-10-10-10-10-5\-5\--|

G|---------------------------------|
D|---------------------------------|
A|---------------------------------| x2
E|---------------------------------|
B|-2-2-2-2-2-2-2-2-2-2-2-2-2-2-2-2-|

Chorus (0:42)
G|---------------------------------------------|
D|---------------------------------------------|
A|---------------------------------------------| x3
E|-2-2---5-5---0-0-0-0-0-0-0-0---------7---7---|
B|-----------------------------3-3-3-3/--------|

G|---------------------------------------------|
D|---------------------------------------------|
A|---------------------------------------------|
E|-2-2---5-5---0-0-0-0-0-0-0-0-----------------|
B|-----------------------------3-3-3-3-3-3-3-3-|

Verse (1:04)
(there is a slight variation halfway through this verse which is something like this:)
G|------------------------------------|
D|------------------------------------|
A|------------------------------------|
E|------------------------------------|
B|-0-0-0-0-7-7-7-7-10-10-10-7-5-7-5-7-|

Chorus (1:34)
G|---------------------------------------------|
D|---------------------------------------------|
A|---------------------------------------------| x3
E|-2-2---5-5---0-0-0-0-0-0-0-0---------7---7---|
B|-----------------------------3-3-3-3/--------|

G|-----------------------------|
D|-----------------------------|
A|-----------------------------|
E|-2-2---5-5---0-0-0-0-0-0-0-0-|
B|-----------------------------|

V This part could possibly be slightly higher V
G|----------------------------------------------------------------|
D|----------------------------------------------------------------|
A|----------------------------------------------------------------| x4
E|----------------------------------------------------------------|
B|-3-3-3-3-3-3-3-3-3-3-3-3-3-3-3-3-0-0-0-0-0-0-0-0-0-0-0-0-0-0-0-0|

Interlude (2:17)
G|-----------------------------------------------------------------|
D|-----------------------------------------------------------------|
A|-----------------------------------------------------------------| x4
E|-----------------------------------------------------------------|
B|-3-3-----3-3---------------------0-0-----0-0---------------------|

G|-----------------------------------------------------------------|
D|-----------------------------------------------------------------|
A|---------6-6-6-6-------------------------------------------------| x7
E|-4-4-4-4---------------------------------------------------------|
B|-----------------7-7-7-7-4-4-4-4-5-5-5-5-7-7-7-7-0-0-0-0-0-0-0-0-|

G|-----------------------------------------------------------------|
D|-----------------------------------------------------------------|
A|---------6-6-6-6-------------------------------------------------|
E|-4-4-4-4---------------------------------------------------------|
B|-----------------7-7-7-7-4-4-4-4-5-5-5-5-5-5-5-5-5-5-5-5-5-5-5-5-|

Last Chorus (3:25)
G|-----------------------------------------------------------------|
D|-----------------------------------------------------------------|
A|-----------------------------------------------------------------|
E|-2-2-------------5-5-------------0-0----------------------7--7-7-|
B|--------------------------------------------------3--3-3/--------|

G|-----------------------------------------------------------------|
D|-----------------------------------------------------------------|
A|-----------------------------------------------------------------|
E|-2-2-----x---x-x-5-5-----x---x-x-0-0-----x-x-0-0---------7---7---|
B|-------------------------------------------------3-3-3-3/--------|

G|-----------------------------------------------------------------|
D|-----------------------------------------------------------------|
A|-----------------------------------------------------------------| x7
E|-2-2-----2-2-2-2-5-5-----5-5-5-5-0-0-----0-0-0-0---------7---7---|
B|-------------------------------------------------3-3-3-3/--------|

G|-------------------------------------------------|
D|-------------------------------------------------|
A|-------------------------------------------------|
E|-2-2-----2-2-2-2-5-5-----5-5-5-5-0-x-x-x-x-x-x-x-|
B|-------------------------------------------------|

Outro (4:21) "But no motorised action" I am really not very sure of this part at all, it
be higher.
G|-----------------------------------------------------------------|
D|-----------------------------------------------------------------|
A|-----------------------------------------------------------------| x3
E|-----------------------------------------------------------------|
B|-3-3-3-3-3-3-3-3-3-3-3-3-3-3-3-3-5-5-5-5-5-5-5-5-0-0-0-0-0-0-0-0-|

G|-----------------------------------------------------------------|
D|-----------------------------------------------------------------|
A|-----------------------------------------------------------------|
E|-----------------------------------------------------------------|
B|-3-3-3-3-3-3-3-3-3-3-3-3-3-3-3-3-5-5-5-5-5-5-5-5-0r--------------|


| /  slide up
| \  slide down
| h  hammer-on
| p  pull-off
| ~  vibrato
| +  harmonic
| x  Mute note
===============================================================================

            
            
Suggest correction
Creating personal tab
Creating personal tab
You can edit any tab online and save it as your Personal.

You can edit, replace or remove any tab part or add personal notes – all changes will be seen only by you.

Personal tabs can be accessed anytime from any device, even offline.
Learn more »
Give kudos to tab author, rate the tab!
1 2 3 4 5
comments
print report bad tab
guest
You may want to rate the tab now too:
select rating
Wanna post a correction for this tab? Suggest correction