Oops, an error
Loading. Please wait.

Return Of The Jedi tab

version 2
version 2

Whole song

by Reuben
657 views 3 this week
3 commentsread comments
1 2 3 4 5
3 more votes to show rating
add to favorites
×
Save as Personal and add changes to this tab that will be seen only by you. Learn more ›
×
You can save this tab as Personal to edit and correct it or add notes. All changes will be seen only by you. Learn more »
launch autoscroll
font size
0
reset
how to read this tab
guitar tuner
edit
Autoscroll
slow
fast
+/-
esc
set tempo
stop
Author
Difficulty
Return of the Jedi - Reuben

Tabbed by: SirAprry
email: shutupandkissmeufool@hotmail.com

verse 1 riff

B |---------------------------------|
G |---------------------------------|
F#|---------------------------------|
C#|-x--x--x--0-x--x--x--0-x--0------|
G#|-x--x--x--0-x--x--x--0-x--0------|
C#|-12-12-12-0-12-12-12-0-12-0------|     [played until the next bit :)]

bit leading to chorus

B |----------------|
G |----------------|
F#|----------------|
C#|0-0-0-0-0-------|
G#|0-0-0-0-0-------|
C#|0-0-0-0-0-------|      [played four times]

chorus

B |----------------------------------------------------|
G |----------------------------------------------------|
F#|----------------------------------------------------|
C#|8888-8888-88-6666-6666-66-3333-3333-33-0000-0000-00-|
G#|8888-8888-88-6666-6666-66-3333-3333-33-0000-0000-00-|
C#|8888-8888-88-6666-6666-66-3333-3333-33-0000-0000-00-|


fiddly bit

B |----------------------------|
G |----------------------------|
F#|----------------------------|
C#|12p10p0--0h7p0h10-0-12p10p0-|
G#|----------------------------|
C#|----------------------------|


repeat this 4 times then slide up the fret board on the F# string from about 7 to 15(ish)

then repeat the fiddly bit process again

verse 2 riff

same as verse 1 riff except every fourth time play:

B |--------------------------|
G |--------------------------|
F#|--------------------------|
C#|-x--x--x--0-x--x--x--0-11-|
G#|-x--x--x--0-x--x--x--0-11-|
C#|-12-12-12-0-12-12-12-0-11-|


B |----------------|
G |----------------|
F#|----------------|
C#|0-0-0-0-0-------|
G#|0-0-0-0-0-------|
C#|0-0-0-0-0-------|      [played four times]

"i cant staaaand iiiit"

B |------------------------|
G |------------------------|
F#|------------------------|
C#|33333-33333-00000-00000-|
G#|33333-33333-00000-00000-|
C#|33333-33333-00000-00000-|

"how's about you come down and ill explain....."

B |--------------------------------|
G |--------------------------------|
F#|--------------------------------|
C#|12--12-12-12-11--11-11-11-7--11-|
G#|12--12-12-12-11--11-11-11-7--11-|
C#|12--12-12-12-11--11-11-11-7--11-|


"i like a job in, which i am able..."

B |----------------------------------------------------|
G |----------------------------------------------------|
F#|----------------------------------------------------|
C#|8888-8888-88-6666-6666-66-3333-3333-33-5555-5555-55-|
G#|8888-8888-88-6666-6666-66-3333-3333-33-5555-5555-55-|
C#|8888-8888-88-6666-6666-66-3333-3333-33-5555-5555-55-|

"and if you're think soooo.."

B |-----------------------------------|
G |-----------------------------------|
F#|-----------------------------------|
C#|8-8-8-8--6-6-6-6--3-3-3-3--0-0-0-0-|
G#|8-8-8-8--6-6-6-6--3-3-3-3--0-0-0-0-|
C#|8-8-8-8--6-6-6-6--3-3-3-3--0-0-0-0-|   [play this 3 times]

B |------0--------0--------0-----------|
G |------0--------0--------0-----------|
F#|------0--------0--------0-----------|
C#|8-8-8----6-6-6----3-3-3-----0-0-0-0-|
G#|8-8-8----6-6-6----3-3-3-----0-0-0-0-|
C#|8-8-8----6-6-6----3-3-3-----0-0-0-0-| [play this once after that]

B |------0----------0---------0------------------|
G |-----0-0--------0-0-------0-0-----------------|
F#|----0---0------0---0-----0---0----3/--5/--7p0-|
C#|8-8--------6-6-------3-3-------0-0------------|
G#|8-8--------6-6-------3-3-------0-0------------|
C#|8-8--------6-6-------3-3-------0-0------------|  [play this twice]


B |--------|
G |--------|
F#|--------|
C#|0-0-0-0-|
G#|0-0-0-0-|
C#|0-0-0-0-| [four times]


B |-----------------------------------|
G |-----------------------------------|
F#|-----------------------------------|
C#|7-7-7-7--5-5-5-5--2-2-2-2--3-3-3-3-|
G#|7-7-7-7--5-5-5-5--2-2-2-2--3-3-3-3-|
C#|7-7-7-7--5-5-5-5--2-2-2-2--3-3-3-3-|  [twice]

no guitar during the "guitarist and song writer bit" until:

B |---------------|
G |---------------|
F#|---------------|
C#|10-12-9-10-5-7-|
G#|---------------|
C#|---------------|

this is played twice before going back into


B |-----------------------------------|
G |-----------------------------------|
F#|-----------------------------------|
C#|7-7-7-7--5-5-5-5--2-2-2-2--3-3-3-3-|
G#|7-7-7-7--5-5-5-5--2-2-2-2--3-3-3-3-|
C#|7-7-7-7--5-5-5-5--2-2-2-2--3-3-3-3-|  [played 8 times]

this next bit is quite hard to tab out, you'll probably have to work out the pattern
but here are the notes

B |---------------------------|
G |---------------------------|
F#|---------------------------|
C#|0-0-00h3-3-5-3-5-5-5-5-5/7-|
G#|0-0-00h3-3-5-3-5-5-5-5-5/7-|
C#|0-0-00h3-3-5-3-5-5-5-5-5---|7  [listen to it and hope you get it :)]

play this twice and on the third and fourth times :


B |-----------------------|
G |-----------------------|
F#|---12--10--7---9-------|
C#|0--x---x---x---x---5/7-|
G#|0--10--8---5---7---5/7-|
C#|0------------------5/7-|


then finish it off with two riffs that have been used previously and there you have the
(the riffs are easy enough to guess)

and i think thats about it :)

i think this tab is pretty accurate and i know it sounds correct as ive been playing it
way for quite a while now. if you think anything is wrong with it or know a bit is wrong
let me know and we can sort it out :) i apologise if its a bit hard to understand, but 
was the only way i could see fit to tab it.

            
            
Suggest correction
Creating personal tab
Creating personal tab
You can edit any tab online and save it as your Personal.

You can edit, replace or remove any tab part or add personal notes – all changes will be seen only by you.

Personal tabs can be accessed anytime from any device, even offline.
Learn more »
Give kudos to tab author, rate the tab!
1 2 3 4 5
comments
print report bad tab
3 comments total.
+1 reply
fs_ollie 77 Dec 30, 2007 05:43 AM

pretty good tab but there are a few off notes i think and notes missed out. such as the light breakdown should go...

B |---------------------------------------|
G |---------------------------------------|
F#|---------------------------------------|
C#|10-10-10-10--9-9-9-9--5-5-5-5--7-7-7-7-|
G#| 7--7--7--7--5-5-5-5--2-2-2-2--3-3-3-3-|
C#| 7--7--7--7--5-5-5-5--2-2-2-2--3-3-3-3-|

+1 reply
fs_ollie 77 Jan 05, 2008 05:01 AM

also, the....
"how's about you come down and ill explain....."
...section sounds like it should be
B
|--------------------------------|
G
|--------------------------------|
F#|--------------------------------|
C#|15--15-15-15-14--14-14-14-9--14-|
G#|12--1
2-12-12-11--11-11-11-7--11-|
C#|12--12-12-12-11--11-11-11-7--11-|

-1 reply
fs_ollie 77 Jan 05, 2008 05:01 AM

also, the....
"how's about you come down and ill explain....."
...section sounds like it should be

B |--------------------------------|
G |--------------------------------|
F#|--------------------------------|
C#|15--15-15-15-14--14-14-14-9--14-|
G#|12--12-12-12-11--11-11-11-7--11-|
C#|12--12-12-12-11--11-11-11-7--11-|

guest
You may want to rate the tab now too:
select rating
Wanna post a correction for this tab? Suggest correction