Oops, an error
Loading. Please wait.

Kill The Headlights intro tab

1,394 views 1 this week
1 commentread comment
1 2 3 4 5
1 last vote to show rating
add to favorites
×
Save as Personal and add changes to this tab that will be seen only by you. Learn more ›
×
You can save this tab as Personal to edit and correct it or add notes. All changes will be seen only by you. Learn more »
launch autoscroll
font size
0
reset
how to read this tab
guitar tuner
edit
Autoscroll
slow
fast
+/-
esc
set tempo
stop
Difficulty
intermediate
This is my first tableture ever so let me know if it needs and tuning up! Listen to the 
and look at the tabs to learn how to play it!!!

Song:Kill the Headlights
Artist: Rev Theory
Tabbed By: Neal Ayotte

Intro:

E:------------------------------| 4x
B:------------------------------|
G:---4/6----666\44--------------|
D:------------------------------|
A:---2/4----444\22----44444/666-|
E:--------------------22222/444-|

E:-------------------------------------------|
B:-----------------------5-7-5-7-5-7-5-7-5-7-|
G:---4-6-4-6-4-6-4-6-4-6---------------------|
D:-------------------------------------------|
A:-------------------------------------------|
E:-------------------------------------------|


That's all i know of it right now. Remember you have to listen to the track at the same 
to learn how to play it!!!

            
            
Suggest correction
Creating personal tab
Creating personal tab
You can edit any tab online and save it as your Personal.

You can edit, replace or remove any tab part or add personal notes – all changes will be seen only by you.

Personal tabs can be accessed anytime from any device, even offline.
Learn more »
Give kudos to tab author, rate the tab!
1 2 3 4 5
comments
print report bad tab
1 comment total.
0 reply
grentis 183 Feb 20, 2011 11:29 AM

Try this in drop d:
E---------------------------------
B---------------------------------
G---------------------------------
D-4/6-6-6-6/4-4------------------- x4
A-2/4-4-4-4/2-2-2---2-2-2-2/4-4-4-
D---------------2---2-2-2-2/4-4-4-

E---------------------------------
B---------------------------------
G-4-6-6-4-6-6-4-6-6-4-6-6-4-6-6-6-
D---------------------------------
A---------------------------------
D---------------------------------

E---------------------------------
B-5-7-7-5-7-7-5-7-7-5-7-7-5-7-7-7-
G---------------------------------
D---------------------------------
A---------------------------------
D---------------------------------

guest
Wanna post a correction for this tab? Suggest correction